La Engañera, Los Chalchaleros (tablatura)

Autor: Anónimo | 34965 visualizaciones



este tema esta con capotraste en el 2do casillero

PRIMERA

|------3-3-2-3------5--7---|
|------5-5-4-5-----7---8---|
|--4-4-----------------9---|
|----------4-5----7----9---|
|--------------------------|
|--------------------------|

|--7-7-----8-----7-----5-----3--2---|
|--8-8---10-----8-----7-----5---4---|
|--9--------------------------------|
|--9---10------9-----7-----5----4---|
|-----------------------------------|
|-----------------------------------|

|-------5-7-8-7-5-----0-2-3-2-0-|
|------5-------------0----------|
|-----5-------------0-----------|
|-------------------------------|
|--0-0--------------------------|
|----------------0-0------------|

|-----------------------------0-|
|-----------------------------0-|
|-----------------------------0-|
|---5--4--2-1---4--2----------2-|
|-----------------------------2-|
|--7--5--3--2--5--3---5-6-7---0-|



   MIm           SI7 MIm
 Corazon por que no  callas
       LAm          MIm
 no te cansas de llorar
    MIm     RE       DO  SI7
 no ves que me estoy muriendo
                     MIm
 no ves que no puedo mas

 Si yo pudiera arrancarte
 para dejar de penar
 y asi mostrarle a esa ingrata
 que al que olvida hay que olvidar


ESTRIBILLO


 LAm                  SI7
 Ayer le he visto con otro
                MIm
 alegre la vi pasar
   MIm    RE   DO  SI7
 ganas tuve de gritarle
                 MIm
 engañera p'ande vas.


SEGUNDA

 Corazon vos me engañaste
 o es que no te comprendi
 pense que no la queria
 y hoy veo que no es asi.

 Tengo miedo muchas veces
 tengo miedo de aflojar
 tengo miedo que me obligues
 corazon a perdonar.

 (de vuelta al estribillo)





Calificar esta versión:
Aviso: Este fichero es trabajo propio de su transcriptor y representa su interpretación personal de la canción. El material contenido en esta página es para exclusivo uso privado, por lo que se prohibe su reproducción o retransmisión, así como su uso para fines comerciales.
Más versiones de La Engañera, Los Chalchaleros
La Engañera
acordes
La Engañera (ver 2)
acordes
La Engañera
tablatura
Descubre más canciones de Los Chalchaleros