La Cerrillana, Los Chalchaleros (tablatura) (ver 2)

Autor: Anónimo | 31028 visualizaciones

ESTA ES LA INTRODUCCION MAS O MENOS PARECIDA A LA ORIGINAL
LA LETRA Y LOS ACORDES ESTAN AL LADO

                         LAm
1 ---------12--12--12--12---12----12----10----8----
2 --13-------------------------13----13----12---10-
3 -------------------------------------------------
4 -------------------------------------------------
5 -------------------------------------------------
6 -------------------------------------------------

             MIm    
1---7------7---7---5---3------
2---8------8---8---7---5------
3-----------------------------
4-----------------------------
5-----------------------------
6-----------------------------
 
                 SI7
1---2-----2--2--7-----5--3----
2---4-----4--4--8-----7--5----
3-----------------------------
4-----------------------------
5-----------------------------
6-----------------------------

OTRA VEZ
                         LAm
1 ---------12--12--12--12---12----12----10----8---
2 --13-------------------------13----13----12---10
3 ------------------------------------------------
4 ------------------------------------------------
5 ------------------------------------------------
6 ------------------------------------------------

             MIm    
1---7------7---7---5---3---
2---8------8---8---7---5---
3--------------------------
4--------------------------
5--------------------------
6--------------------------


                  SI7
1---2-----2--2--7--7--5--5--3---
2---4-----4--4--8--8--7--7--5---
3-------------------------------
4-------------------------------
5-------------------------------
6-------------------------------

                  SI7
1----------------------------------0----2----0----
2----------------------------------0----0----0----
3----------------------------------0----2----0----
4------------------------------1---2----1----2----
5---------0--1--2--1--2--3--4------2----0----2----
6--0--3----------------------------0----2----0----

LISTO GENTE PARA TODOS QUE LES GUSTA LOS CHALCHAS!!!!!!!
DESDE PEHUAJO ARGENTINA
DANIEL
Calificar esta versión:
Aviso: Este fichero es trabajo propio de su transcriptor y representa su interpretación personal de la canción. El material contenido en esta página es para exclusivo uso privado, por lo que se prohibe su reproducción o retransmisión, así como su uso para fines comerciales.
Más versiones de La Cerrillana, Los Chalchaleros
La Cerrillana
acordes
La Cerrillana (ver 2)
acordes
La Cerrillana (ver 3)
acordes
La Cerrillana
tablatura
La Cerrillana (ver 2)
tablatura
Descubre más canciones de Los Chalchaleros