Te Esperare Cantando, Los Cantores Del Alba (tablatura)

Autor: dani1139 | 17929 visualizaciones



tonalidad (la menor)





1||--5-5-7-8-5-----7-7-8-10-7-----
2||-------------------------------
3||--5-5-7-9-5-----7-7-9-10-7-----
4||-------------------------------
5||-------------------------------
6||-------------------------------



1||--5-5-7-8-5--7---12------------
2||-------------------------------
3||--5-5-7-9-5-7------13----------
4||-------------------------------
5||-------------------------------
6||-------------------------------





Comentarios del colaborador: elmaster_1139@hotmail.com

Calificar esta versión:
Aviso: Este fichero es trabajo propio de su transcriptor y representa su interpretación personal de la canción. El material contenido en esta página es para exclusivo uso privado, por lo que se prohibe su reproducción o retransmisión, así como su uso para fines comerciales.
Más versiones de Te Esperare Cantando, Los Cantores Del Alba
Te Esperare Cantando
acordes
Te Esperare Cantando
tablatura
Descubre más canciones de Los Cantores Del Alba