Tus Besos, Los Caligaris (bajo)

Autor: Anónimo | 35471 visualizaciones



Espero sea de su agrado esta canción...


  Intro...
G|--------------------------------------------------------|
D|-----4-----4-------8-----8-------6-----6----------------|
A|--2-----2-------6-----6-------4-----4----------4-----4--|
E|--------------------------------------------2-----2-----|

G|---------------------------------------------------------|
D|-----4-----4-------8-----8-------6-----6-----------------|
A|--2-----2-------6-----6-------4-----4-----------------4--|
E|----------------------------------------------2----------|



  No puedo...
G|-------------------------------------------------------|
D|---------------------8---------------------------------|
A|--2---2-2-------6-6----6---------4---4-4------------4--|
E|-----------------------------------------------2-2-----|

G|-------------------------------------------------------|
D|---------------------8---------------------------------|
A|--2---2-2-------6-6----6---------4---4-4------------4--|
E|-----------------------------------------------2-2-----|

G|-------------------------------------------------------|
D|---------------------8---------------------------------|
A|--2---2-2-------6-6----6---------4---4-4------------4--|
E|-----------------------------------------------2-2-----|

G|-------------------------------------------------------|
D|---------------------8---------------------------------|
A|--2---2-2-------6-6----6--------4---4-4----------------|
E|----------------------------------------------2---2-2--|



  Y no puedo...
G|--------------------------------------------------------|
D|-----4-----4-------8-----8-------6-----6----------------|
A|--2-----2-------6-----6-------4-----4----------4-----4--|
E|--------------------------------------------2-----2-----|

G|--------------------------------------------------------|
D|-----4-----4-------8-----8-------6-----6----------------|
A|--2-----2-------6-----6-------4-----4----------4-----4--|
E|--------------------------------------------2-----2-----|


G|--------------------------------------------------------|
D|-----4-----4-------8-----8-------6-----6----------------|
A|--2-----2-------6-----6-------4-----4----------4-----4--|
E|--------------------------------------------2-----2-----|


G|--------------------------------------------------------|
D|-----4-----4-------8-----8-------6-----6----------------|
A|--2-----2-------6-----6-------4-----4----------4-----4--|
E|--------------------------------------------2-----2-----|



  Me embriaga...
G|----------------------------------------------------------|
D|----------------------------------------------------------|
A|--2----------------6----------------4---------------------|
E|-----------------------------------------------2---25/2--|



  Tu magia...
G|-----------------------------------------------|
D|-----------------------------------------------|
A|--2---2-2-------6---6-6-------4---4-4----------|
E|--------------------------------------------2--|



  Y es que me...
G|---------------------------------------------------|
D|---------------------8-----------------------------|
A|--2---2-2-------6-6----6-------4---4-4----------4--|
E|-------------------------------------------2-2-----|

G|------------------------------------------------|
D|---------------------8--------------------------|
A|--2---2-2-------6-6----6-------4---4-4-------4--|
E|-------------------------------------------2----|



  Y no puedo...
G|--------------------------------------------------------|
D|-----4-----4-------8-----8-------6-----6----------------|
A|--2-----2-------6-----6-------4-----4----------4-----4--|
E|--------------------------------------------2-----2-----|


  Y no puedo...
G|--------------------------------------------------------|
D|-----4-----4-------8-----8-------6-----6----------------|
A|--2-----2-------6-----6-------4-----4----------4-----4--|
E|--------------------------------------------2-----2-----|


G|--------------------------------------------------------|
D|-----4-----4-------8-----8-------6-----6----------------|
A|--2-----2-------6-----6-------4-----4----------4-----4--|
E|--------------------------------------------2-----2-----|


G|--------------------------------------------------------|
D|-----4-----4-------8-----8-------6-----6----------------|
A|--2-----2-------6-----6-------4-----4----------4-----4--|
E|--------------------------------------------2-----2-----|
  Fin...
G|---------------------------|
D|------------------------2--|
A|--2-2-----4-4-----8--------|
E|---------------------4-----|





Calificar esta versión:
Aviso: Este fichero es trabajo propio de su transcriptor y representa su interpretación personal de la canción. El material contenido en esta página es para exclusivo uso privado, por lo que se prohibe su reproducción o retransmisión, así como su uso para fines comerciales.
Más versiones de Tus Besos, Los Caligaris
Tus Besos
acordes
Tus Besos
bajo
Descubre más canciones de Los Caligaris