Jodido Noviembre, Los Caballeros De La Quema (tablatura)

Autor: pakotillo | 36912 visualizaciones

INTRO

e|------------------------------------5-----------|
B|--------5------8-7-5----5--4----4-------4-------|
G|----6h7---6----7-7-5----5--5--5---5---5---5-----|
D|--7------------------7--4--3--------------------|
A|------------------------------------------------|
E|------------------------------------------------|
  
e|----------------------------5-------5-----------|
B|--------5------8-7-5-----7--4---4-------4-------|
G|----6h7---6----7-7-5-----7--5-5---5---5---5-----|
D|--7------------------7--------------------------|
A|------------------------------------------------|
E|------------------------------------------------|

e|------------------------------------5-----------|
B|--------5------8-7-5----5--4----4-------4-------|
G|----6h7---6----7-7-5----5--5--5---5---5---5-----|
D|--7------------------7--4--3--------------------|
A|------------------------------------------------|
E|------------------------------------------------|
  
e|----------------------------5-------5-----------|
B|--------5------8-7-5-----7--4---4-------4-------|
G|----6h7---6----7-7-5-----7--5-5---5---5---------|
D|--7------------------7--------------------------|
A|------------------------------------------------|
E|------------------------------------------------|


ESTROFA
    A       G    F#m     F      F
e|------0-------0-------2-------1-------1-|
B|------0-------0-------2-------1-------1-|
G|------5-------4-------2-------1-------1-|
D|--7-7-7---5-5-5---4-4-4---3-3-3---3-3-3-|
A|--7-7-7---5-5-5---4-4-4---3-3-3---3-3-3-|
E|--5-5-5---3-3-3---2-2-2---1-1-1---1-1-1-| 

  A            G    F#m         F
Jodido este noviembre que me fusila y amanece sin vos
Dónde fue que perdimos la risa?
De nuevo no volviste: malas noticias para mí, para vos.
Nadie nos fía más mentiras.

Puente 
G#              A#                     F
  Tanto cielo afuera y nosotros estrellándonos.
G#              A#                     F             G
  Tanta luna suelta y nosotros sin tocarnos, sin aullarnos.


e|------------------------------------5-----------|
B|--------5------8-7-5----5--4----4-------4-------|
G|----6h7---6----7-7-5----5--5--5---5---5---5-----|
D|--7------------------7--4--3--------------------|
A|------------------------------------------------|
E|------------------------------------------------|
  
e|----------------------------5-------5-----------|
B|--------5------8-7-5-----7--4---4-------4-------|
G|----6h7---6----7-7-5-----7--5-5---5---5---------|
D|--7------------------7--------------------------|
A|------------------------------------------------|
E|------------------------------------------------|

   A            G    F#m         F
Jodido este noviembre, tirando piedras para ahogar el dolor
de esta patada y este silencio.
De nuevo sin aliento, llegando tarde a lo que nunca parió.
Quién nos estranguló las ganas?

G D Dm
              G           C             Em
Y mientras las gentes salen a morir sus vidas yo
Dm          G          A#        C             G       E
mastico tu nombre y le tiro este corazón a los perros
       E7
y después te olvido.

A            G         F#m      F
Mascotas huerfanitas, malas noticias para mí para vos:
nada crece entre las cenizas.

SOLO

e|------------------------------------------------|
B|------10-----10-----10-------10---10---10-------|
G|--7/9----7/9----7/9----9-8-8----8----8----8-----|
D|------------------------------------------------|
A|------------------------------------------------|
E|------------------------------------------------|

e|-----------------------------9/12---------------|
B|------10-------10------10----------13/10--------|
G|--7/9----7/9-9---7/9-9----9---------------------|
D|------------------------------------------------|
A|------------------------------------------------|
E|------------------------------------------------|

e|------------------------------------------------|
B|-----------------------------10-----10----------|
G|---------9-8-7-------7-6-5/-----5/--------------|
D|---5/7-7-------5/7-7----------------------------|
A|------------------------------------------------|
E|------------------------------------------------|

e|---9-8-9-8-9-8-9-11-12--------------------------|
B|-----------------------10^12^13^12^10^12^13^----|
G|------------------------------------------------|
D|------------------------------------------------|
A|------------------------------------------------|
E|------------------------------------------------|


G#              A#                     F
  Tanto cielo afuera y nosotros estrellándonos.
G#              A#                     F             G
  Tanta luna suelta y nosotros sin tocarnos, sin aullarnos.

D Dm
              G           C             Em
Y mientras las gentes salen a morir sus vidas yo
Dm          G          A#        C             G       
mastico tu nombre y le tiro este corazón a los perros
 
D Dm   
             G           C             Em
Y mientras las gentes salen a morir sus vidas yo
Dm          G          A#        C             G        E
mastico tu nombre y le tiro este corazón a los perros
       E7 
y después?

e|------------------------------------5-----------|
B|--------5------8-7-5----5--4----4-------4-------|
G|----6h7---6----7-7-5----5--5--5---5---5---5-----|
D|--7------------------7--4--3--------------------|
A|------------------------------------------------|
E|------------------------------------------------|
  
Jodido noviembre..
e|----------------------------5-------5-----------|
B|--------5------8-7-5-----7--4---4-------4-------|
G|----6h7---6----7-7-5-----7--5-5---5---5---5-----|
D|--7------------------7--------------------------|
A|------------------------------------------------|
E|------------------------------------------------|

Jodido noviembre?

e|------------------------------------5-----------|
B|--------5------8-7-5----5--4----4-------4-------|
G|----6h7---6----7-7-5----5--5--5---5---5---5-----|
D|--7------------------7--4--3--------------------|
A|------------------------------------------------|
E|------------------------------------------------|

Jodido noviembre..

e|----------------------------5-------5-----------|
B|--------5------8-7-5-----7--4---4-------4-------|
G|----6h7---6----7-7-5-----7--5-5---5---5---5-----|
D|--7------------------7--------------------------|
A|------------------------------------------------|
E|------------------------------------------------|
 

e|------------7---------------7-------------------|
B|------6---6-----6-----6---6---------------------|
G|----7---7-----7---7-7---7-----------------------|
D|------------------------------------------------|
A|------------------------------------------------|
E|------------------------------------------------|

  
e|------------5-----------------------------------|
B|------------5-----------------------------------|
G|------------6-----------------------------------|
D|------------7-----------------------------------|
A|---5-5---6--7-----------------------------------|
E|---3-3---4--5-----------------------------------|
Calificar esta versión:
Aviso: Este fichero es trabajo propio de su transcriptor y representa su interpretación personal de la canción. El material contenido en esta página es para exclusivo uso privado, por lo que se prohibe su reproducción o retransmisión, así como su uso para fines comerciales.
Más versiones de Jodido Noviembre, Los Caballeros De La Quema
Jodido Noviembre
acordes
Jodido Noviembre
tablatura
Descubre más canciones de Los Caballeros De La Quema