No Necesito Pensar, Los Bunkers (tablatura)

Autor: Anónimo | 32557 visualizaciones

Bueno Este Es Un Gran Temaso De Los Bunkers
Y Va Dedicado Para Una De Las Mejores Bandas Emergentes De Chile
(LEY DEL MONO)Disfruten El Tema Chaooo No Mássssssss.

Intro: Cm - G - Fm - G

Cm                G - Fm
No Necesito Pensar
            G               Cm
No Escarbo Razones Para Luchar
         G - Fm
Tampoco Creer
            G               A#
Me Basta Un Soplo Sobre La Piel

        D#              A#             D# - A#
Prefiero Estar Cansado Y No Feliz De Hablar
            D#            G
Con Los Dos Pies Clavados En Mi Hogar

Cm             G - Fm
No Necesito Idear
           G               Cm
Un Plan Perfecto Para Intentar
            G - Fm
Me Basta Sentir
                G            A#
Un Golpe En La Sangre Para Vivir

            D#           A#        D# - A#
El Suelo En Las Rodillas Y La Soledad
             D#           G
Que Aloja En Mi Cabeza Al Despertar

Coro:

C               C7        C7              F             Fm
No Me Trates De Convencer Ya Vez Te Puedo Odiar Muy Bien
                C                 Dm - G
De Todas Formas No Lo Vas A Entender
C               C7          C7                F       Fm
Si No Hay Sitio Donde Ir No Quisiera Estar Cerca De Ti
            C                 Dm      G
El Porvenir No Espera Nada De Mi...De Mi...Ohhh


Solo: Cm - G - Fm - G (X2)

e----3---4-3----3--4-3---4--6-4---7--8-7--------
B-----------------------------------------------
G-3/5--5--------------3/5--5---5/7--7-----------
D------------3/5--5-----------------------------
A-----------------------------------------------
E-----------------------------------------------


e-13/15--11-----------------------------------------
B-----------15-13-12--------------------------------
G--------------------13-12--3/5-3-1---0-1-0---------
D-----------------------------------3---------------
A-------------------------------------------5-3-2-5-
E---------------------------------------------------

A#         D#            A#             D# - A#
Prefiero Estar Cansado Y No Feliz De Hablar
         D#         G
Actuando Como Era De Esperar

C               C7        C7              F             Fm
No Me Trates De Convencer Ya Vez Te Puedo Odiar Muy Bien
                C                Dm - G
De Todas Formas No Lo Vas A Entender
C               C7             C7             F       Fm
Si No Hay Sitio Donde Ir No Quisiera Estar Cerca De Ti
               C              Dm      G
El Porvenir No Espera Nada De Mi...De Mi...Ohhh


Final:Cm - A# - G# - G (X4)

e-------------------------------------
B-------------------------------------
G--8--8--8---7-7-7--5-5---4-----------
D--1O-10-10--8-8-8--6-6---5-----------   (X 4)
A-------------------------------------
E-------------------------------------

Termina En: Cm

Gracias Saludos A Mi Hijo Alvarito Chaoooooooooo.
Aviso: Este fichero es trabajo propio de su transcriptor y representa su interpretación personal de la canción. El material contenido en esta página es para exclusivo uso privado, por lo que se prohibe su reproducción o retransmisión, así como su uso para fines comerciales.

Comentarios en Facebook: