Nada Nuevo Bajo El Sol, Los Bunkers (tablatura)

Autor: Anónimo | 27633 visualizaciones

Una tablatura que sacamos a oído

el intro

1-------------------------------------------- 
2-------------------------------------------- 
3-------------------------------------------- 
4-------------------------------------------- 
5--0-0---2-2---4-4-4----0-0-0---2-2---4-4-4-- 
6-------------------------------------------- 


1--------------------------------------------|
2--------------------------------------------|
3--------------------------------------------|
4--2-2---4-4---6-6-6---2-2-2---4-4---6-6-6---|
5--------------------------------------------|
6--------------------------------------------|





y va marcando la guitarra.

1---------------------------|
2---------------------------|
3---------------------------|
4---------------------------|
5----5--3-2-0---------------|
6-------------3-------------|
Aviso: Este fichero es trabajo propio de su transcriptor y representa su interpretación personal de la canción. El material contenido en esta página es para exclusivo uso privado, por lo que se prohibe su reproducción o retransmisión, así como su uso para fines comerciales.

Comentarios en Facebook: