Miéntele, Los Bunkers (tablatura)

Autor: Anónimo | 29775 visualizaciones

Por: Jµªn§µðª|

   Gm              D#
e---------------------------
b--7-7-7-7h8-7-5------------    x2 vezez
g----------------8---5-7-8--
d------------------6--------
a---------------------------
E---------------------------

   Gm          D#            A#             D
e------3-5-3--------3-5-3--------------------------------
b----3-------3----4-------4-------3-4-3---------1-3-3-3--
g-------------------------------3-------3-----2----------
d--------------(1)-------------------------(0)-----------
a----------------------------(1)-------------------------
E-(3)----------------------------------------------------
Laz notaz entre paréntesis zi quieren laz tocan


Gm                  D#
Haciendo fila bajo el sol
Gm                      D#
perdiendo todo el tiempo sin razón
Gm          D#                    A#    D
me encuentras tú sin nada entre las manos

Gm                 D#
No tienes nada que decir
Gm                       D#
pues cada cual tiene su precio aquí
Gm                  D#
ya has pagado mucho por mi
D
mucho mas de lo que pedí

Eztribillo:

Gm      D#
Miéntele
A#                  F      Gm    D#
no le digas lo que hiciste ayer
  A#         F
cuando me viniste a ver

Mientele
no le digas nunca como fue
tú sabes como es él
D#                     D
seria capaz de hasta matarte por saber

(laz mizmaz notaz de la eztrofa)
Recuerdo verte caminar
la frente en alto sin disimular
te ves tan bien sin nada de verguenza

Él cree que tú eres muy feliz
no hace otra cosa más que hablar de ti
dale un beso antes de dormir
una excusa para vivir


Eztribillo:

Miéntele
no le digas lo que hiciste ayer
cuando me viniste a ver
Mientele
no le digas nunca como fue
tú sabes como es él
Déjame ver todas las cosas como ayer ohhh
Muestrale que no tiene nada que perder
puede estar contento para siempre
si no se entera de nosotros otra vez

Zolo:

e-------------------------3---3------------
b---------------------------3---3-4p3------
g-------------------------------------3-0--
d----5-5p3---5-3---------------------------
a----------5-----5-3-----------------------
E--3-----------------6-3-------------------

e----------------------|-------------------------
b----------------------|-------------------------
g-6/7-6/7-6/7-8p7------|-------------------------
d-----------------8-5--|--8-8-8-5-8-8-5-7-5-7-5--
a----------------------|-------------------------
E----------------------|-------------------------
                     x3

e-------------------------------------------------------------
b--10---10-8----7h8-8p6---------------------------------------
g-----7------7----------5-7-7-5-7-5-7-5----------5---5-8-5-7--
d----------------------------------------7-7-7-7---7----------
a-------------------------------------------------------------
E-------------------------------------------------------------

Dezpuez ze toca el estribillo y la ultima parte ze toca arpegiando

En laz zegundaz partez de laz eztrofaz ze toca ezto
   Gm       D#       Gm        D#     Gm       D# D
e----------------------------------------------------
b----------------------------------------------------
g-------------------------------------------------7--
d-------------------------------------------------7--
a-----------6--5-3------------6/8--6--5--------6--5--
E--3--3-5-6--------6-3--3-5-6------------3-5-6-------

Y ezo ez todo el tema, yeh yeh
Cualquier puteada o reclamo dirigirze a mi meil
Un zaluo pa mi guitarra(z), pa mi trolola y mi amante, ja :)
Aviso: Este fichero es trabajo propio de su transcriptor y representa su interpretación personal de la canción. El material contenido en esta página es para exclusivo uso privado, por lo que se prohibe su reproducción o retransmisión, así como su uso para fines comerciales.
Más versiones de Miéntele, Los Bunkers
Mientele
acordes
Miéntele
tablatura
Miéntele
bajo
Descubre más canciones de Los Bunkers

Comentarios en Facebook: