La Exiliada Del Sur, Los Bunkers (tablatura)

Autor: Anónimo | 26436 visualizaciones

Aqui esta la intro de la cancion:

E -----------------------12-12----12----12----12-14-------------
B --14-12-14-12-14-12-14-------14----14----14-----12----12---12-
G --------------------------------------------------14----14----
D --------------------------------------------------------------
A --------------------------------------------------------------
E --------------------------------------------------------------

E --------------------|
B -12h14-12-----------|
G ----------14s11-11--| X2
D --------------------|
A --------------------|
E --------------------|

eso es la verdaderas intro. (para los otro q la sacaron) "tomen"
Aviso: Este fichero es trabajo propio de su transcriptor y representa su interpretación personal de la canción. El material contenido en esta página es para exclusivo uso privado, por lo que se prohibe su reproducción o retransmisión, así como su uso para fines comerciales.

Comentarios en Facebook: