El Derecho De Vivir En Paz, Los Bunkers (tablatura)

Autor: Anónimo | 42795 visualizaciones

Intro

      G       A        G        A     Em
1-----7-------9--------7--------9-----9h12-12-12-10-8-7-----
2---8---8--10---10---8---8---10---10------------------------
3-----------------------------------------------------------
4-----------------------------------------------------------
5-----------------------------------------------------------
6-----------------------------------------------------------

Verso


   1  El Derecho De Vivir
1-------------------------------
2----8------8------8------8-----
3--7---9--7---9--7---9--7---9---
4-------------------------------
5-------------------------------
6-------------------------------

  2 Poeta Ho Chiminh
1--------------------------7--7-
2--------8-------8-------7--7---
3--7--9-----7--9-------4--4-----
4-------------------------------
5-------------------------------

   1 Que Golpea de Vietnam
1-------------------------------
2----8------8------8------8-----
3--7---9--7---9--7---9--7---9---
4-------------------------------
5-------------------------------
6-------------------------------

    2  A Toda LA Humanidad
1--------------------------7--7-
2--------8-------8-------7--7---
3--7--9-----7--9-------4--4-----
4-------------------------------
5-------------------------------

  3 Ningun Cañon Borrara
1---------------------------------
2--------9--------12---9-10h12-10-
3-----10-------10---12------------
4--12-------12--------------------
5---------------------------------
6---------------------------------

 4  El Zurco De Tu Arrozal
1-----------------------------------
2--------12-----9-10h12--10---------
3-----10-----12--------------7-9-7--
4--12-------------------------------
5-----------------------------------
6-----------------------------------

Coro
Intro
       El Derecho de Vivir

1-----7-------9--------7--------9------
2---8---8--10---10---8---8---10---10---
3--------------------------------------
4--------------------------------------
5--------------------------------------
6--------------------------------------
       En Paz
1---------------------------------------
2--12-17-17-12-17-17-12-17-17-12-17-17--
3---------------------------------------
4---------------------------------------
5---------------------------------------
6---------------------------------------



      G  A      G  A
1)-El derecho de vivir
  C       Bm
poeta Ho Chiminh
       G A      G    A
Que golpea de Vietnam
  C              Bm
a toda la humanidad

    Dm            Am
2)-Ningún cañon borrara
   Cm             G
el zurco de tu arrosal

Coro
     G    A     G   A  Em
3)-El derecho de vivir en paz


1)-Indochina es el lugar
más allá del ancho mar
Donde revienta la flor
con genocidio inapalm

2)-La luna es una explosión
que funda todo el clamor

Coro
3)-El derecho de vivir en paz

Solo

1-----------------------------------------------------------
2--8-8-10-10h12-10-8-8-8-8-8-8-7-5-3-3h5-3-1-0-1-1h3-1-0-0--
3-----------------------------------------------------------
4-----------------------------------------------------------
5-----------------------------------------------------------
6-----------------------------------------------------------

1-----------------------------------------------------------
2--8-8-8-8h10-8-7-7-7-6-6-6-5-3h5-5-5-4-4-4-3-1-1h3---------
3-----------------------------------------------------------
4-----------------------------------------------------------
5-----------------------------------------------------------
6-----------------------------------------------------------

1---------10--------------10-10---12-12--12-12-12-12-12-12-
2--8-8-10----12-10-8-8-10-------12-----12----12-----12-----
3----------------------------------------------------------
4----------------------------------------------------------
5----------------------------------------------------------
6----------------------------------------------------------

1--15-15-15h17-17-17h19-17-15-15-15-15-15-15-14-12-10-10h12-
2-----------------------------------------------------------
3-----------------------------------------------------------
4-----------------------------------------------------------
5-----------------------------------------------------------
6-----------------------------------------------------------

1--10-8-7-8-8h10-8-7-7-7h15-15-15-15-15-14-14-14-13-13-13---
2-----------------------------------------------------------
3-----------------------------------------------------------
4-----------------------------------------------------------
5-----------------------------------------------------------
6-----------------------------------------------------------

1--12-10-10h12-12-12-11-11-10-8-8h10-10-8-7-8-10-8-7-10-8-7-
2-----------------------------------------------------------
3-----------------------------------------------------------
4-----------------------------------------------------------
5-----------------------------------------------------------
6-----------------------------------------------------------


1--8-10-8-7-10-8-7-10-8-7-10-8--
2-------------------------------
3-------------------------------
4-------------------------------
5-------------------------------
6-------------------------------


1)-Indochina es el lugar
más allá del ancho mar
Donde revienta la flor
con genocidio inapalm

2)-La luna es una explosión
que funda todo el clamor

Coro
3-El derecho de vivir en paz


1)-La la la la la...


2)-Es el canto universal
cadena que hará triunfar

Coro
3)-El derecho de vivir en paz (3 veces)
Aviso: Este fichero es trabajo propio de su transcriptor y representa su interpretación personal de la canción. El material contenido en esta página es para exclusivo uso privado, por lo que se prohibe su reproducción o retransmisión, así como su uso para fines comerciales.

Comentarios en Facebook: