Dios No Sabe Perder, Los Bunkers (tablatura)

Autor: Anonimo | 41338 visualizaciones

Intro:FA#m - SI

	e -------------------------------|--------------------------------	
	b -------------------------------|--------------------------------
	g -------------------------------|--------------------------------
	d -------------2-----------------|-----------2--------------------
	a ---------2-4----2-----0--------|-------2-4---2--------0---------
	e --2--2-4----------------4-2----|---2-4------------------4-2-----





	FA#m		 SI	     
	Amiga mía comenzó a llover,
      FA#m		     SI
	nos mojaremos hasta hoy
      FA#m		     SI
	No será triste como aquella vez,
      FA#m		      SI	MI
	cuando tu pecho atravesó su adiós…

	       LAm	       FA   DO    MI   LAm             FA    DO
	e ---------------------------------------------------------------------
	b -----9~~--12-10-9-10-9----------------9~~--12-10-9-10-9--------------
	g -------------------------9--------------------------------9----------
	d --9-----------------------10--9-10--9-----------------------10-------
	a ---------------------------------------------------------------------
	e ---------------------------------------------------------------------



  DO#m			FA#	      SI
	Que gracia hay en tu soledad,
	       LA	SOL#   SOL  	
	no me digas que no      
    SI         LA     SOL#   SOL	
	puedes reconocer
    SI      LA		SOL#    SOL
	El amor que cae en tus manos,
    SI		LA       SOL#      SOL	
	dios no sabe perder....... mas de una vez  

	
PUENTE: FA#m - SI

	e -------------------------------|--------------------------------	
	b -------------------------------|--------------------------------
	g -------------------------------|--------------------------------
	d -------------2-----------------|-----------2--------------------
	a ---------2-4----2-----0--------|-------2-4---2--------0---------
	e --2--2-4----------------4-2----|---2-4------------------4-2-----



	FA#m		         SI	
	Amiga no habrá  llantos esta vez,
     FA#m		         SI	
	puedes mirar tranquila a dios
     FA#m		          SI	
	No sabes cuan lejos puedes estar,
     FA#m		        SI	
	cuando la pena intente regresar…


PUENTE 2: DO#m - FA#  X 4


	   MI  LAm	       FA   DO       MI LAm             FA     DO
	e ----------------------------------------------------------------------
	b -----9~~--12-10-9-10-9-----------------9~~--12-10-9-10-9--------------
	g -------------------------9---------------------------------9----------
	d --9-----------------------10--9-10--9------------------------10-------
	a ----------------------------------------------------------------------
	e ----------------------------------------------------------------------



   DO#m			FA#	      SI
	Dime que gracia hay en tu soledad,
		LA	SOL#   SOL  
	no me digas que no 
    SI         LA     SOL#   SOL	
	puedes reconocer
    SI      LA		SOL#    SOL
	El amor que cae en tus manos,
    SI		LA       SOL#      SOL	
	dios no sabe perder…
    SI         LA     SOL#   SOL	
	No me digas que no
    SI         LA     SOL#   SOL	
	puedes reconocer
    SI      LA		SOL#    SOL
	El amor que cae en tus manos, 
    SI		LA       SOL#      SOL	
	dios no sabe perder... mas de una vez  
    SI		LA       SOL#      SOL
	.....................más de una vez  
    SI		LA       SOL#      SOL
	.....................más de una vez  
	
    SI		LA       SOL#      SOL
    oooooooooooooooohhhhhhhhhhhhh


    SI		LA       SOL#      SOL  x 5

    SI




GRAN TEMA...

Fuente original: LaCuerda
Colaborador original: Matias Ignacio Egaña Lucero [matias069@hotmail.com]
Aviso: Este fichero es trabajo propio de su transcriptor y representa su interpretación personal de la canción. El material contenido en esta página es para exclusivo uso privado, por lo que se prohibe su reproducción o retransmisión, así como su uso para fines comerciales.

Comentarios en Facebook: