Deuda, Los Bunkers (acordes)

Autor: Anónimo | 14749 visualizaciones

dodomfalasoslasosmremsolsolm
Intro: Dom Solm La#m Fa


Do                        Sol                   La#
Soy un montón de cuentas que en vida no puedo pagar

La#                       Fa
Soy un montón de deudas que jamás podre saldar

Do                       Sol                 La#
Todo lo que junte hasta hoy mañana no me servirá

La#                        Fa
Las cosas que me harán mejor no las puedo comprar


Coro:
     Rem                          Sol
Y cansado de tanto andar por la calles sin pensar

    Rem                           Sol                     Do
Que he dejado mis pies atrás sin saber, sin saber a donde van


II.-
Do                      Sol                 La#
Yo siempre me negué a creer en una vieja religión

  La#                               Fa
Tal vez me equivoque de pies con querer mar menos

Do             Sol                       La#
Mira mi alrededoooor buscando alguna luuuuuz

 La#                 Fa
pero no había nada excepto, tu excepto tu


Coro:
       Rem                         Sol
Y cansado de tanto andar por la calles sin pensar

     Rem                           Sol                    Do
Que he dejado mis pies atrás sin saber, sin saber a donde van


Dom Solm La#m Fa
Uuuhooooooo uuhhoooooo uhoooooooooooo uhhhhoooooo

Solo: encima del solo  Dom Solm La#m Fa

2:17

e|-----------------------------------------------------------|
B|-----------------------------------------------------------|
G|----------21212---99--101010----121212---99--101010--------|
D|-----------------------------------------------------------|
A|-----------------------------------------------------------|
E|-----------------------------------------------------------|

e|-----------------------------------------------------------|
B|-----------------------------------------------------------|
G|----------101010---77--999----101010--77---999-------------|
D|-----------------------------------------------------------|
A|-----------------------------------------------------------|
E|-----------------------------------------------------------|

Coro:
       Rem                         Sol
Y cansado de tanto andar por la calles sin pensar

     Rem                           Sol                  Do
Que he dejado mis pies atrás sin saber, sin saber a donde van


Dom Solm La#m Fa
Uuuhooooooo uuhhoooooo uhoooooooooooo uho uho uho


3:11

Solo: encima del solo  Dom Solm La#m Fa

e|-----------------------------------------------------------|
B|-----------------------------------------------------------|
G|----------21212---99--101010----121212---99--101010--------|
D|-----------------------------------------------------------|
A|-----------------------------------------------------------|
E|-----------------------------------------------------------|

e|-----------------------------------------------------------|
B|-----------------------------------------------------------|
G|----------101010---77--999----101010--77---999-------------|
D|-----------------------------------------------------------|
A|-----------------------------------------------------------|
E|-----------------------------------------------------------|


Carlos Qps!!
Cualquier duda, reclamo o insulto xD...a:

Carlitrosqp@hotmail.com

Saludos, Chaito
Aviso: Este fichero es trabajo propio de su transcriptor y representa su interpretación personal de la canción. El material contenido en esta página es para exclusivo uso privado, por lo que se prohibe su reproducción o retransmisión, así como su uso para fines comerciales.

Comentarios en Facebook: