Cura De Espanto, Los Bunkers (bajo)

Autor: Anónimo | 25838 visualizaciones

Intro:
E:-2-2--2----0-0-0-5-4-5-4
A:-----4--2-2-------------  X2
D:------------------------
G:------------------------
Verso:
E:-2-2--2----0-0-0-5-4-5-4
A:-----4--2-2-------------  X12
D:------------------------
G:------------------------
Intermedio:
E:-2-2-2-2-2-2-2-2---------2-2-2-2-2-2-2-2
A:----------------4-------4---------------
D:------------------4-2-1-----------------
G:----------------------------------------
Coro:
E:-7-7------------5------------
A:-----6-9-7-7------4-7-5-7-5-4
D:-------------6-9------------- x3
G:-----------------------------

E:-7-7--------------------------/
A:-----6-9-7-7-----4-4-4-4-4-4-4/
D:-------------6-9--------------/Final del coro
G:------------------------------/
Luego se repite el verso 4 veses y el intermedio es:
E:-2-2-2-2-2-2-2-2---------2-2-2-2-2-2-2-2
A:----------------4-------4---------------
D:------------------4-2-1-----------------
G:----------------------------------------

E:-2-2-2-2---------/
A:--------4-------4/
D:----------4-2-1--/
G:-----------------/
y se repite el coro y se repite el verso 7 veses y termina
E:-2-2--2----0-0-0-5-5-4-3-2/
A:-----4--2-2---------------/
D:--------------------------/
G:--------------------------/
Saludo a "SERVICIO" de salamanca (chile)
Aviso: Este fichero es trabajo propio de su transcriptor y representa su interpretación personal de la canción. El material contenido en esta página es para exclusivo uso privado, por lo que se prohibe su reproducción o retransmisión, así como su uso para fines comerciales.

Comentarios en Facebook: