Culpable, Los Bunkers (bajo)

Autor: Anónimo | 41805 visualizaciones

Cualquier corrección o sugerencia
al mail: francisco_tt14@hotmail.com
Versión extraída del dvd lanzamiento vida de perros
similar a la versión de la culpa
Pancho aburto p.

Gonzalo López - (Vox Saturn)

----|-------------------|-------------------|-------------------|
----|-------------------|-------------------|-------------------|
----|--0----------------|--L----------------|--0----------------|
----|-------------------|-------------------|-------------------|

---------|-------------------|-------------------|-------------------|
---------|-------------------|-------------------|-------------------|
--L------|-------------------|-------------------|-------------------|
---------|--0----------------|--L----------------|--2----------------|

--------|-----------------------|----------------2----|
--------|-----------------------|---------2-----------|
--2-----|--0------L-------0--2--|--4------------------|
--------|--------------0--------|---------------------|

------------------------|----------------------|-------------------|
--5--4--2---------------|----------------------|-------------------|
------------------0--2--|--3------2----0-------|-------------------|
---------------0--------|-----------------3----|--0----------------|

---------------------|---------------------|----------------------|
--2------0-----------|--1--2--4------------|----------------------|
----------------2----|---------------------|--2------0------------|
---------------------|---------------------|--------------3--2----|

----------------------|----------------------|----------------------|
----------------------|---------5----4--2----|----------------------|
--0------3--3----2----|----------------------|--0------3----2--0----|
----------------------|--0-------------------|----------------------|

----------------------|-----------------------|----------------------|
----------------------|-----------------------|----------------------|
----------------------|--0------L-------0--2--|--5-------------------|
--0------3--3----0----|--------------0--------|---------3----2--0----|

-------------------|---------------------|----------------------|
-------------------|--4------2------1----|----------------------|
--2----------------|---------------------|--0------3--3----2----|
-------------------|---------------------|----------------------|

----------------------|----------------------|----------------------|
---------5----4--2----|----------------------|----------------------|
----------------------|--0------3----2--0----|----------------------|
--0-------------------|----------------------|--0------3--3----0----|

-----------------------|----------------------|-------------------|
-----------------------|----------------------|-------------------|
--0------L-------0--2--|--5-------------------|--2----------------|
--------------0--------|---------3----2--0----|-------------------|

--4--------|-------------------|-------------------|-------------------|
-----------|-------------------|-------------------|-------------------|
-----------|--0----------------|--L----------------|--0----------------|
-----------|-------------------|-------------------|-------------------|

-----------|-------------------|-------------------|
-----------|-------------------|-------------------|
--L--------|-------------------|-------------------|
-----------|--0----------------|--L----------------|

----------------------|-------------------|----------------------|
----------------------|-------------------|----------------------|
------------4---------|--2----------------|-----------------2----|
--2------2-------2----|-------------------|--0------3--3---------|

----------------------|-----------------------|-------------------|
----------------------|-----------------------|-------------------|
---------2------------|-----------------------|-------------------|
--3-----------5--3----|--2------5--5----2--3--|--0----------------|

----------------------|----------------------|----------------------|
----------------------|----------------------|----------------------|
-----------------2----|---------2------------|----------------------|
--0------3--3---------|--3-----------5--3----|--2------3--2----5----|

-------------------|-----------------------|----------------------|
-------------------|-----------------------|----------------------|
-------------------|--0------L-------0--2--|--4------2--0---------|
--0----------------|--------------0--------|-----------------2----|

---------------------|----------------------|----------------------|
---------------------|-----------------2----|------------0----2----|
--1------------------|---------4--4---------|--2----4--------------|
-----3--2------------|--2-------------------|----------------------|

--3------3-----------|------------2---------|---------------------|
------------4--------|-----------------4----|--2------------------|
---------------------|--2------2------------|---------------------|
---------------------|----------------------|---------------0--2--|

-------------------|----------------------|-------------------||
-------------------|----------------------|-------------------||
-------------------|-------0----2----4----|--2----------------||
--3----------------|--3-------------------|-------------------||


Tablature Legend
----------------
L - tied note
Aviso: Este fichero es trabajo propio de su transcriptor y representa su interpretación personal de la canción. El material contenido en esta página es para exclusivo uso privado, por lo que se prohibe su reproducción o retransmisión, así como su uso para fines comerciales.

Comentarios en Facebook: