Bailando Sólo, Los Bunkers (tablatura) (ver 2)

Autor: Anónimo | 24954 visualizaciones

Intro:

Rif 1
E|--------------------------------------------------------------||
B|--------------------------------------------------------------||
G|--10-10----10-10----10-10----10----10-12----------------------||
D|--------12-------12-------12----12----------------------------||
A|--------------------------------------------------------------||
E|--------------------------------------------------------------||

Rif 2
E|--------------------------------------------------------------||
B|--10-10------10-10----10-10----11-10--------------------------||
G|--------10---------10-------10-------12-10--------------------||
D|--------------------------------------------------------------||
A|--------------------------------------------------------------||
E|--------------------------------------------------------------||

 REm                                      FA
    Ahora que estás aquí ahogado en medio de la gente
    REm                                        FA
    y estás dispuesto a más de lo que puedes soportar
    REm                                        FA
    los altavoces van amplificando las verdades
    REm                                      FA
    ahora que estás aquí en medio de la soledad


    CORO:

    REm                      FA
    Bailando solo en la oscuridad
               LAm                    SOL
    te vas a acostumbrar a ver toda la vida pasar
    REm                          FA
    igual que una promesa al anochecer
               LAm                      SOL
    te puedes disolver al borde de un vaso de cristal



     REm                                   FA(RIFF 1)
    Ahora que estás aquí y que el futuro se te esconde
     REm                                    FA(RIFF 1)
    ya has rasguñado el suelo y las paredes de tu habitación
     REm                                      FA(RIFF 1)
    no quieres ver el sol, no quieres nada por las tardes
     LAm                                 SOL
    ninguna sensación que nos haga sentir mejor


    CORO:


    Bailando solo en la oscuridad
    te vas a acostumbrar a ver toda la vida pasar
    igual que una promesa al anochecer
    te puedes disolver al borde de un vaso de cristal

    PUENTE: FA - SOL - LAm x3 REm

    E|-------------------||
    B|-------------------||
    G|--10-10-10---------||  x 16
    D|-----------/12-----||
    A|-------------------||
    e|-------------------||

    REm - FA - LAm - SOL x 2

    REm - FA
    La ra la ra la la la ra la la (RIFF 1) x 4


Rif 1

E|--------------------------------------------------------------||
B|--------------------------------------------------------------||
G|--10-10----10-10----10-10----10----10-12----------------------||
D|--------12-------12-------12----12----------------------------||
A|--------------------------------------------------------------||
E|--------------------------------------------------------------||

Saludos desde Chile!
Aviso: Este fichero es trabajo propio de su transcriptor y representa su interpretación personal de la canción. El material contenido en esta página es para exclusivo uso privado, por lo que se prohibe su reproducción o retransmisión, así como su uso para fines comerciales.

Comentarios en Facebook: