Angel Para Un Final, Los Bunkers (tablatura)

Autor: Anónimo | 42180 visualizaciones

Intro: F#m  D  A  DO#m D E

  FA#m           RE                 LA     DO#m    RE     MI
e-------5--4--2-------2--0---------------------------------------
B--7-------------3---------3----5h3-----5-----5-----5------------
G-----------------------------------2------1-----2----4----1-2---
D--------------------------------------------------------------4-
A----------------------------------------------------------------
E----------------------------------------------------------------
Lo de la otra guitarra suenan las mismas notas, que la que empieza pero en

otra octava.

Cuentan que cuando un silencio... (Fa#m  Mi  Re  La  Do#m)

Y hubo tal silencio...(Fa#m  Re  La  Do#m  Re  Mi)

Todo empezó en la sorpresa... (Fa#m  Mi  Re  La  Do#m)

Sin querer se hace una ofrenda...(Fa#m  Re  La  Do#m  Re  Mi)

Ahora comprendo cual era el ángel que entre nosotros pasó (La  Fa#m  Do#m)

Era el más terrible el implacable el mas feroz (RE  Ladim  Mi  Sidim  Fa#m

 MI)

Ahora comprendo en total (A  Do#m  D-Ladim-La-Fa#m

Ángel para un(Re-La)  Final... [Fa#m]

  FA#m           RE                 LA     DO#m    RE     MI
e-------5--4--2-------2--0---------------------------------------
B--7-------------3---------3----5h3-----5-----5-----5------------
G-----------------------------------2------1-----2----4----1-2---
D--------------------------------------------------------------4-
A----------------------------------------------------------------
E----------------------------------------------------------------

Todo empezó en la sorpresa...(Fa#m  Mi  Re  La  Do#m)

Sin querer se hace una ofrenda...(Fa#m  Re  La  Do#m  Re  Mi)

Ahora comprendo cual era el ángel que entre nosotros pasó (La  Fa#m  Do#m)

Era el más terrible el implacable el mas feroz (RE  Ladim  Mi  Sidim  Fa#m

 MI)

Ahora comprendo en total... (A  Do#m  D-Ladim-La-Fa#m

Ángel para un(Re-La)  Final... [Fa#m]

FA#m           RE                 LA     DO#m    RE     MI
e-------5--4--2-------2--0---------------------------------------
B--7-------------3---------3----5h3-----5-----5-----5------------
G-----------------------------------2------1-----2----4----1-2---
D--------------------------------------------------------------4-
A----------------------------------------------------------------
E----------------------------------------------------------------
Notas:
*La cancion acaba en La.
*Para sacar bien la cancion es recomendable escucharla mientras la ven.
Calificar esta versión:
Aviso: Este fichero es trabajo propio de su transcriptor y representa su interpretación personal de la canción. El material contenido en esta página es para exclusivo uso privado, por lo que se prohibe su reproducción o retransmisión, así como su uso para fines comerciales.
Más versiones de Angel Para Un Final, Los Bunkers
ángel Para Un Final
acordes
Angel Para Un Final
tablatura
Angel Para Un Final (ver 2)
tablatura
Descubre más canciones de Los Bunkers