Ahora Que No Estás, Los Bunkers (bajo)

Autor: Anónimo | 15512 visualizaciones

Hola, bueno aqui dejo publicado el tab de Ahora que no estas
una canción muy facil, solamnt algunos tmps pero el resto facil...

INTRO: 0:03
G-------------------------
D-------------------------
A-10-10-10-10-10-10-10-10-
E-------------------------

VERSO:"Ahora que no estas..."
G-------------------------------------------------------------------------
D-------------------------------------------------------------------------
A-10-10-10-10-10-10-10-10-8-8-8-8-8-8-8-8-6-6-6-6-6-6-6-6-----------------
E---------------------------------------------------------8-8-8-8-8-8-8-8-

G-------------------------------------------------------------------------
D-------------------------------------------------------------------------
A-10-10-10-10-10-10-10-10-8-8-8-8-8-8-8-8-6-6-6-6-6-6-6-6-------------10--
E---------------------------------------------------------8-8-8-8-8-8---8-

G--------------------------------------------------------------------------
D-------------------12----------------10---------------8-------------------
A-10-10-10-10-10-10----10-8-8-8-8-8-8----8-6-6-6-6-6-6---6-5-5-5-5-5-5-5-5-
E--------------------------------------------------------------------------

CORO:"Vete muy lejos..."
G-----------------------------------------------------
D-----------------------------------------------------
A-10-10-101010101010-9-9-999999-8-8-888888------------
E------------------------------------------8-8-888888-

G-8-8-888888--------------------------------|
D------------8-8-7-7------------------------|
A-------------------------------------------|
E--------------------8-8-888888-10-10-10-10-|

"Quedate lejos, tan lejos de mi mente..."
G-----------------------------------------------------
D-----------------------------------------------------
A-10-10-101010101010-9-9-999999-8-8-888888------------
E------------------------------------------8-8-888888-

G-------------------------------------------|
D------------8-8-7-7------------------------|
A-6-6-666666--------------------------------|
E--------------------8-8-888888-10-10-10-10-|

SILENCIO:
G------------------------------------------------------
D------------------------------------------------------
A-10-10-10---101210-8-8-8--8108-6-6-6--868-------------  X2
E---------10-------------8-----------6-----8-8-85-8108-

VERSO:"Ahora que no estas..."
G-------------------------------------------------------------------------
D-------------------------------------------------------------------------
A-10-10-10-10-10-10-10-10-8-8-8-8-8-8-8-8-6-6-6-6-6-6-6-6-----------------
E---------------------------------------------------------8-8-8-8-8-8-8-8-

G-------------------------------------------------------------------------
D-------------------------------------------------------------------------
A-10-10-10-10-10-10-10-10-8-8-8-8-8-8-8-8-6-6-6-6-6-6-6-6-------------10--
E---------------------------------------------------------8-8-8-8-8-8---8-

G--------------------------------------------------------------------------
D-------------------12----------------10---------------8-------------------
A-10-10-10-10-10-10----10-8-8-8-8-8-8----8-6-6-6-6-6-6---6-5-5-5-5-5-5-5-5-
E--------------------------------------------------------------------------

CORO:"Vete muy lejos..."
G-----------------------------------------------------
D-----------------------------------------------------
A-10-10-101010101010-9-9-999999-8-8-888888------------
E------------------------------------------8-8-888888-

G-8-8-888888--------------------------------|
D------------8-8-7-7------------------------|
A-------------------------------------------|
E--------------------8-8-888888-10-10-10-10-|

"Quedate lejos, tan lejos de mi mente..."
G-----------------------------------------------------
D-----------------------------------------------------
A-10-10-101010101010-9-9-999999-8-8-888888------------
E------------------------------------------8-8-888888-

G-------------------------------------------|
D------------8-8-7-7------------------------|
A-6-6-666666--------------------------------|
E--------------------8-8-888888-10-10-10-10-|

SILENCIO:
G------------------------------------------------------
D------------------------------------------------------ (hasta que termine
A-10-10-10---101210-8-8-8--8108-6-6-6--868-------------      la canción)
E---------10-------------8-----------6-----8-8-85-8108-


Bueno ai esta toda la canción Ahora que no estas - Bunkers, disfrutenla...
Saludos para mi banda PluzZ* y para la promo FF*08 - aiacuXo!°..jeje
cualquier duda o coments mi msn es  ajpe_24@hot...

                                                                      AlxZ*
Aviso: Este fichero es trabajo propio de su transcriptor y representa su interpretación personal de la canción. El material contenido en esta página es para exclusivo uso privado, por lo que se prohibe su reproducción o retransmisión, así como su uso para fines comerciales.

Comentarios en Facebook: