La Indiecita, Los Bukis (tablatura)

Autor: Anónimo | 45259 visualizaciones



Armoniza en MI mayor

las mismas notas que ven en este tab, las puedes
tocar en teclado.
Cada parte se repite dos veces
(Primera Parte)
e----------------------------------------------
B--5-5---5-5-5-5---------4-4---4-4-4-4---------
G------6---------6-6-4-4-----4---------4-4-----
D------------------------------------------6-6-
A----------------------------------------------
E----------------------------------------------

(Segunda Parte)
e--------------------------------------------------
B--------2-----------------------------------------
G------1---4-4---2-4-----2-4-1-1---1-4---1-1-1-1-1-
D--2-2---------4-----4-4---------2-------2-2-2-2-2-
A----------------------------------------2-2-2-2-2-
E--------------------------------------------------

Fuente original: LaCuerda
Colaborador original: Omar A. Pedraza [o_pedraza@hotmail.com]





Calificar esta versión:
Aviso: Este fichero es trabajo propio de su transcriptor y representa su interpretación personal de la canción. El material contenido en esta página es para exclusivo uso privado, por lo que se prohibe su reproducción o retransmisión, así como su uso para fines comerciales.
Más versiones de La Indiecita, Los Bukis
La Indiecita
acordes
La Indiecita
tablatura
Descubre más canciones de Los Bukis