Kanishka, Los Brujos (bajo)

Autor: eloso_rock | 40518 visualizaciones



Intro

G--------------------------
D--------------------3-5---
A-5-5-3s6-5--5-5-3-5-----3-
E--------------------------

Versos (las primeras dos estrofas)

G-----------------------------------------
D-----------------------------------------
A-----5-5-5-----5-5-5-----7-7-7-----7-7-7-
E-7-7-------7-7-------5-5-------5-5-------

Estribillo (pero diciendo Manu, Manu)

G--------------------------
D--------------------3-5---
A-5-5-3s6-5--5-5-3-5-----3-
E--------------------------

" La pobre manu......"

G--------------------------
D--------------------------
A-5--5-5-5-----------------
E----------5-5-5-3-3-3-----(X4)

Introduccion a la parte instrumental

G--------------------------
D--------------------------
A--------------------------
E--1-1-1-1-1---------------

Intrumental

G--------------------------
D--------------------------
A---1---1---3-3-3-2--------
E-0---0---0----------------(X4)

G--------------------------
D--------------------------
A-0--0--0-0-0--3-2---------
E--------------------------(X4)

G--------------------------
D--------------------------
A--------------------------
E-5-5-5-5-5-5-3-6----------(X4)

Se pueden poner arreglos propios en esta cancion. 
Por ejemplo en el estribillo ahí va una idea.

G--14-14--12-15-14--14-14-12-15-15-15-
D--12-12--10-13-12--12-12-10-13-13-13-
A-------------------------------------
E-------------------------------------






Calificar esta versión:
Aviso: Este fichero es trabajo propio de su transcriptor y representa su interpretación personal de la canción. El material contenido en esta página es para exclusivo uso privado, por lo que se prohibe su reproducción o retransmisión, así como su uso para fines comerciales.
Más versiones de Kanishka, Los Brujos
Kanishka
acordes
Kanishka
bajo
Kanishka
bateria
Descubre más canciones de Los Brujos