Jinetes En El Cielo, Los Babys (tablatura) (ver 2)

Autor: locohentai | 22351 visualizaciones



ola soy raul y aqui les dejo elrift de jinetes en el cielo dejen sus coments

e:-----------------------------/------------------
B:----------------------------/-------------------
G:---------------------------/--------------------
D:--------------------------/-------------2-22-0-2
A:--0-00-2-3-33-0----------/-0-00-2-3-33-0--------
E:-0-------------3-33-0-3-/-0---------------------


e:-----------------------------
B:-----------------------------
G:----222----------------------
D:-22----222-0-2---------------
A:---------------333-222-0-0---
E:------------------------3----

luego se vuelve a repetir bueno hasta a qui los dejo nos vemos 
loco hentai





Calificar esta versión:
Aviso: Este fichero es trabajo propio de su transcriptor y representa su interpretación personal de la canción. El material contenido en esta página es para exclusivo uso privado, por lo que se prohibe su reproducción o retransmisión, así como su uso para fines comerciales.
Más versiones de Jinetes En El Cielo, Los Babys
Jinetes En El Cielo
tablatura
Jinetes En El Cielo (ver 2)
tablatura
Jinetes En El Cielo (ver 3)
tablatura
Jinetes En El Cielo (ver 4)
tablatura
Jinetes En El Cielo (ver 5)
tablatura
Descubre más canciones de Los Babys