El Murguero, Los Autenticos Decadentes (tablatura)

Autor: Anónimo | 22050 visualizaciones

INTRO:

1/-2/2-0/2-0-3/3-0/2-0-5/5-0-2-0-----------------
2/--------------------------------2--------------
3/-----------------------------------------------
4/-----------------------------------------------
5/-----------------------------------------------
6/-----------------------------------------------

1/-----------------------------------------------
2/-----2-----------------------------------------
3/-2-2---2---2-2-0-2-0---------------------------
4/---------2-----------2-------------------------
5/-----------------------------------------------
6/-----------------------------------------------


Esta tablatura se toca justo en el medio,
se toca cuatro veces y va seguido de un grito
(eh!):

1/-10/10-------10/10-------10---------------
2/-------10/10-------10/10------------------
3/------------------------------------------
4/------------------------------------------
5/------------------------------------------
6/------------------------------------------

Fuente original: LaCuerda
Colaborador original: santiago [santi_normal07@hotmail.com]
Calificar esta versión:
Aviso: Este fichero es trabajo propio de su transcriptor y representa su interpretación personal de la canción. El material contenido en esta página es para exclusivo uso privado, por lo que se prohibe su reproducción o retransmisión, así como su uso para fines comerciales.
Más versiones de El Murguero, Los Autenticos Decadentes
El Murguero
acordes
El Murguero
tablatura
El Murguero
armonica
Descubre más canciones de Los Autenticos Decadentes