El Gran Señor, Los Auténticos Decadentes (tablatura)

Autor: Anónimo | 44821 visualizaciones

Este es el solo, cada tablatura se toca 2 veces, una cada una.
Espero que les guste y que lo puedan tocar.
Los acordes que acompañan este solo son F#m - C#7

--------9-----9----9----9-10-9-7------------------------------
-----10----10---10---10----------10-9--7-6--------------------
---11---------------------------------------------------------
-11-----------------------------------------------------------
--------------------------------------------------------------
--------------------------------------------------------------



---------7---7---7---7-9-10-9-7----7--9------------------------
-------9---9---9---9------------10-----------------------------
----10---------------------------------------------------------
-11------------------------------------------------------------
---------------------------------------------------------------
---------------------------------------------------------------

Rodrigo!
Calificar esta versión:
Aviso: Este fichero es trabajo propio de su transcriptor y representa su interpretación personal de la canción. El material contenido en esta página es para exclusivo uso privado, por lo que se prohibe su reproducción o retransmisión, así como su uso para fines comerciales.
Más versiones de El Gran Señor, Los Auténticos Decadentes
El Gran Señor
acordes
El Gran Señor
tablatura
Descubre más canciones de Los Auténticos Decadentes