Confundido, Los Autenticos Decadentes (tablatura)

Autor: gabriel_jgb | 33728 visualizaciones

Le HICE ALGUNAS CORRECCIONES Q ANTES TENIA MAL.. FIJENSE AHORA
A VER Q LES PARECE


m: mantener la nota
v: estirar
s: deslisarce



Intro:
1)--------3-------3s7---3----------12---
2)--------------------------------------(esto lo hace varias
3)----4s5---5s7---------0--------------- veces en todo el tema)
4)--------------------------------------
5)--------------------------------------
6)--------------------------------------


esto hace con el piano:
2)--5s7-8-7-5--5s7-0--------------------------
3)------------7-------------------------------


Punteo:

2:45
1)-----------------------------------12-10----15v-12----
2)------8-10s12-12-10-8---8-----10s12------12-----------
3)--7s9-----------------9---9m--------------------------
4)------------------------------------------------------
5)------------------------------------------------------
6)------------------------------------------------------
 (esto va rapido)
1)-------------------------------------------------------------
2)----8---8---8---8----------8-8-10s12-12------10--10-12s15-15-
3)-7s9-7s9-7s9-7s9-------7s9--9------------9s11--11------------
4)-------------------------------------------------------------
5)--------------------7----------------------------------------
6)------------------0------------------------------------------
Calificar esta versión:
Aviso: Este fichero es trabajo propio de su transcriptor y representa su interpretación personal de la canción. El material contenido en esta página es para exclusivo uso privado, por lo que se prohibe su reproducción o retransmisión, así como su uso para fines comerciales.
Más versiones de Confundido, Los Autenticos Decadentes
Confundido
acordes
Confundido (ver 2)
acordes
Confundido
tablatura
Descubre más canciones de Los Autenticos Decadentes