Besándote, Los Auténticos Decadentes (tablatura)

Autor: Anónimo | 34236 visualizaciones

Este es el tab que tanto pedian de “Besandote” de los Autenticos
Decadentes. Adoro a este grupo y me esforce en sacar las notas
espero las aprovechen bien.

Va dedicado a Helena Mariana Polo Montero, a quien alguna vez
le cante esta cancion, luego terminamos y ahora volvemos a
vivir este amor, con mayor intensidad.

Te Amo.

*********

La forma de tocar es sencilla, cada |-| es un compas, va a 4/4
(98) escuchen la cancion para que vean donde hacen silencios.

E|---|-------------|---|-------------|---|-------|-----|-----|
A|---|-------------|---|-------------|---|-------|-----|-----|
D|---|-------------|-4-|-------------|-2-|-2-4---|-----|-----|
G|-0-|-------------|---|-------------|---|-----0-|---2-|-----|
B|---|-3-3-3-3-0-3-|---|-3-3-3-3-0-3-|---|-------|-0---|-1-0-|
e|---|-------------|---|-------------|---|-------|-----|-----|

E|---|-------------|---|-------------|---|-------|-----|
A|---|-------------|---|-------------|---|-------|-----|
D|---|-------------|-4-|-------------|-2-|-2-4---|-----|
G|-0-|-------------|---|-------------|---|-----0-|---2-|
B|---|-3-3-3-3-0-3-|---|-3-3-3-3-0-3-|---|-------|-0---|
e|---|-------------|---|-------------|---|-------|-----|

Este riff es el principal, se repite en algunas estrofas
mientras se lleva ritmica con otra guitarra, tambien se repite
al final.

La cancion lleva mas riffs pero son punteados en Re (2 cuerda
3 traste) principalmente.

Si aun asi desean que se los pase, mandenme un e-mail y se los
paso.

*************

Por hoy y por siempre los Autenticos De-ca-den-tes.
                                                Vive Latino 2000
Calificar esta versión:
Aviso: Este fichero es trabajo propio de su transcriptor y representa su interpretación personal de la canción. El material contenido en esta página es para exclusivo uso privado, por lo que se prohibe su reproducción o retransmisión, así como su uso para fines comerciales.
Más versiones de Besándote, Los Auténticos Decadentes
Besandote
acordes
Besandote (ver 2)
acordes
Besandote (ver 3)
acordes
Besándote
tablatura
Descubre más canciones de Los Auténticos Decadentes