No Tengo Tiempo, Liran'Roll (acordes) (ver 2)

Autor: Anónimo | 29725 visualizaciones

cddmemfaglam


Intro                                   x2
e|---------------------------------------|
B|---------------------------------------| 
G|---------------------------------------| 
D|---------------------------------------| 
A|-0-0-0-0---0-0-0-0---0-0-0-0---0-0-0-0-|   

Riff 1                                                           X2
e|--7--8--7-----7--7--10--7-----7--7--8--7--------4-----2----|----------|
B|--5--6--5-----5--5--8---5-----5--5--6--5--------2-----0----|----------| 
G|-----------------------------------------------------------|----------| 
D|-----------------------------------------------------------|---[2]----| 
A|-----------------------------------------------------------|---[0]----|     
Letra
e|--------------------------------------------------------------|
B|--------------------------------------------------------------|
G|-*------------------------------------------------------------| 
D|-*-7-7--7-7--7-7-7------3-3--3-3--3-3-3------5-5--5-5--5-5-5--| 
A|---7-7--7-7--7-7-7------3-3--3-3--3-3-3------5-5--5-5--5-5-5--| 
E|---5-5--5-5--5-5-5------1-1--1-1--1-1-1------3-3--3-3--3-3-3--|  
                  C-Em-Lam-G-Dm-C-Em-Lam-G-Dm-C                        
                                    
C            Em       Lam            G
cabalgo sobre sueños inecesarios y rotos prisionero e iluso de esta selva cotidiana
                  
Dm      Lam            D            G
y como hoja seca que vaga en el viento pueblo imaginario sobre historias de concreto            
      
C      Em            Lam            G
navego en el mar de las cosas exactas voy  clavado en  momentos de semanticas cascadas

Dm            Lam      D            G
y cual si fuera una nube esculpido sobre el cielo y pongo insatisfecho mis huellas sobre el invierno

C             Em      Fa            C
ya que yo no tengo tiempo de cambiar mi vida la maquina me ha vuelto una sombra borrosa

Dm            Lam            D            G
y aunque soy la misma tuerca que ha negado tus ojos se que aun tengo tiempo para atacar en un cuello


            C-Em-Lam-G-Dm-C-Em-Lam-G-Dm-C


C            Em      Lam            G
camino romantico en una alfombra de status masticando en mi mente las verdades mas sabias

Dm      Lam            D            G
como un lobo salvaje que ha perdido su camino he llenado mis bolsillos con escombros del destino

C            Em            Lam      G
sabes bien que manejo implacable mi nave cibernetica entro aquel laberinto de los planetas muertos

Dm            Lam      D                  G
y cual si fuera la espuma de un anuncio de cerveza una marca me ha vendido la forma de mi cabeza


C             Em      Fa            C
ya que yo no tengo tiempo de cambiar mi vida la maquina me ha vuelto una sombra borrosa

Dm            Lam            D            G
y aunque soy la misma tuerca que ha negado tus ojos se que aun tengo tiempo para atacar en un cuello


                                    C-Em-Lam-G-Dm-C-Em-Lam-G-Dm-C


ESTA ES MI PRIMERA TRADUCCION ESPERO QUE LES GUSTE 
PARA TODAS LAS NENAS LINDAS EN ESPECIAL PARA TI YENI





Calificar esta versión:
Aviso: Este fichero es trabajo propio de su transcriptor y representa su interpretación personal de la canción. El material contenido en esta página es para exclusivo uso privado, por lo que se prohibe su reproducción o retransmisión, así como su uso para fines comerciales.
Más versiones de No Tengo Tiempo, Liran'Roll
No Tengo Tiempo
acordes
No Tengo Tiempo (ver 2)
acordes
Descubre más canciones de Liran'Roll