No Puedo Más, Liran'Roll (tablatura) (ver 2)

Autor: Anónimo | 25867 visualizaciones



 esta rola esta bien cingona y me pone triston por todas esas viejas
que no quieren a uno y me ponen el cuerno y llegamos al extremo de
ya no podemos mas y andamos buscando a esa chicuela que sea chida y
busquense a una chava buenota pero sincera.

INTRO- C
RIFF
E---3-----------
A------0--2--3--
D---------------

C      G
Noooo, no puedo mas
Am           Em
no puedo mas con la soledad
Dm      G          C
me esta matandoooo cada dia mas

RIFF
E---3-----------
A------0--2--3--
D---------------



C      G
Noooo ,no se que hacer
Am                  Em
no se ni a donde ir no hay con quien hablar
Dm        G         C
me siento solooooo y quiero llorar.

RIFF
E---3-----------
A------0--2--3--
D---------------

Am    Em
Voy, voy camino hacia el sol
Dm        G             C
para ver si yo encuentro alguien como yo
RIFF
E---3-----------
A------0--2--3--
D---------------


Am    Em
Voy, voy camino hacia el cielo
Dm       G              C
para ver si yo encuentro alguien como yo.

RIFF
E---3-----------
A------0--2--3--
D---------------


[SOLO]  C  G  Am  Em  F  G  C  (2X)

G-----------------------------------------------------
B-----------------------------------------------------
e--3b----3-5-7-3---3-5-7-8-7-5--7/8-8-8-7-0-3-7/8-10-3


G-----------------------------------------------------
B-----------------------------------------------------
e--3b----3-5-7-3---3-5-7-8-7-5--7/8-8-8-7-0-3-7/8-10-3



RIFF
E---3-----------
A------0--2--3--
D---------------
Am    Em
Voy, voy camino hacia el sol
Dm        G             C
para ver si yo encuentro alguien como yo

RIFF
E---3-----------
A------0--2--3--
D---------------

Am    Em
Voy, voy camino hacia el cielo
Dm       G              C
para ver si yo encuentro alguien como yo.

RIFF
E---3-----------
A------0--2--3--
D---------------

C     G
Nooo ,no puedo mas
Am            Em
no puedo mas con el maldito alcohol
Dm      G       C
me esta matando cada dia mas
RIFF
Dm      G       C
me esta matando cada dia mas.
RIFF
Dm      G                   C                RIFF  C
me esta matandoououououoho cada dia maaaaaaaas

YO LES MANDO UN SALUDO A TODOS LOS VALEDORES QUE SON BANDA
EN ESPECIAL AL BOLILLOS,AL KLEBER, AL RUFFLES,AL DIABLO Y
!ECHENLE ROCKANROLL ÑEROS¡ ASI DICE MI AMIGO PACHECO BLUES





Calificar esta versión:
Aviso: Este fichero es trabajo propio de su transcriptor y representa su interpretación personal de la canción. El material contenido en esta página es para exclusivo uso privado, por lo que se prohibe su reproducción o retransmisión, así como su uso para fines comerciales.
Más versiones de No Puedo Más, Liran'Roll
No Puedo Más
acordes
No Puedo Más
tablatura
No Puedo Más (ver 2)
tablatura
Descubre más canciones de Liran'Roll