La Montaña, Liran'Roll (bajo)

Autor: Anónimo | 24400 visualizaciones



El Principio

G|------------------------------------------------
D|------------------------------------------------
A|--------------------------------------0---------
E|--1--0-1-0--3----1--0-1-0--3----3-1-3-----------

Paresco estar en el desierto.......

G|----------------------------------------------------------------
D|----------------------------------------------------------------
A|----------------------------------------00000000----0-----0-----
E|--11111111-33333333-0-11111111-33333333-----------3-----3-------

Quisiera Estar en la Montaña........

G|----------------------------------------------------------------------
D|----------------------------------------------------------------------
A|-----------------------------------------00000000-33333333---0---0----
E|--11111111-33333333-0-11111111-333333333-------------------3----3-----

G|--------------
D|--------------
A|----0----0----
E|--3----3------

Decirle Querido Amigoo........

G|-----------------------------------------------------------------
D|-----------------------------------------------------------------
A|--------------------00000000-33333333---0------0----0-----0------
E|--11111111-33333333--------------------3-----3-----3-----3-------

Decirle Que por un Tiempo no la Voy a ver. :(

G|--------------------------------
D|--------------------------------
A|--------------------------0-----
E|--11111111-33333333-3-1-3-------

Y Luego Esto :D

G|--------------------------------------------
D|--------------------------------------------
A|--------------------------------------0-----
E|--1--0-1-0--3---1--0-1-0--3----3-1-3--------

Si en una calle soitaria.....

G|----------------------------------------------------------------
D|----------------------------------------------------------------
A|----------------------------------------00000000----0-----0-----
E|--11111111-33333333-0-11111111-33333333-----------3-----3-------

Que siempre estoy pensando en ella...........

G|---------------------------------------------------------------------
D|---------------------------------------------------------------------
A|-----------------------------------------00000000-33333333---0---0---
E|--11111111-33333333-0-11111111-333333333-------------------3----3----

G|--------------
D|--------------
A|----0----0----
E|--3----3------

Decirle Querido Amigoo........

G|-----------------------------------------------------------------
D|-----------------------------------------------------------------
A|--------------------00000000-33333333---0------0----0-----0------
E|--11111111-33333333--------------------3-----3-----3-----3-------

Decirle Que por un Tiempo no la Voy a ver :(

G|--------------------------------
D|--------------------------------
A|--------------------------0-----
E|--11111111-33333333-3-1-3-------

Esto de Nuevo

G|------------------------------------------------
D|------------------------------------------------
A|--------------------------------------0--------- 2x
E|--1--0-1-0--3----1--0-1-0--3----3-1-3-----------

Quisiera Estar en la Montaña........

G|-------------------------------------------------------------
D|-------------------------------------------------------------
A|-----------------------------------------00000000-33333333---
E|--11111111-33333333-0-11111111-333333333---------------------

Y soñar con mi Guitarra..........

G|---------------------------------------------------------------------
D|---------------------------------------------------------------------
A|-----------------------------------------00000000-33333333---0---0---
E|--11111111-33333333-0-11111111-333333333-------------------3----3----

G|--------------
D|--------------
A|----0----0----
E|--3----3------

Decirle Querido Amigoo........

G|-----------------------------------------------------------------
D|-----------------------------------------------------------------
A|--------------------00000000-33333333---0------0----0-----0------
E|--11111111-33333333--------------------3-----3-----3-----3-------

Decirle Que por un Tiempo no la Voy a ver.

G|-----------------------------------------------------------------
D|-----------------------------------------------------------------
A|-----------------------------33333333------------------------0---
E|--11111111-33333333-11111111----------11111111--3-3----3-1-3-----

El Final

G|------------------------------------------------
D|------------------------------------------------
A|--------------------------------------0---------2x
E|--1--0-1-0--3----1--0-1-0--3----3-1-3-----------

BajoElectrico17.
Espero q les Gustee xD!...





Calificar esta versión:
Aviso: Este fichero es trabajo propio de su transcriptor y representa su interpretación personal de la canción. El material contenido en esta página es para exclusivo uso privado, por lo que se prohibe su reproducción o retransmisión, así como su uso para fines comerciales.
Más versiones de La Montaña, Liran'Roll
La Montaña
acordes
La Montaña
bajo
Descubre más canciones de Liran'Roll