La Flaca, Liran'Roll (tablatura) (ver 2)

Autor: Anónimo | 20237 visualizaciones



Este es el requinto del intro espero sea de
su agrado.

Acompañamiento D-Bm-G-A (2 VECES)

(2 veces)
1--------------------------------------------
2--------------------------------------------
3-------------7-9-7----------------6/7-------
4---0-0--7-9--------9-7-----------7-----9----
5-----------------------9---0--7/9-----------
6--------------------------------------------

1--------------------------------------------
2-----------3----3----3----------------------
3--------3/4--3/4--3/4-----------------------
4---0-0--------------------2-2--2/4--2-------
5--------------------------------------------
6--------------------------------------------

Acompañamiento D-Bm-G-G-A

1-----------------------14-12-10--12-10------
2--8/9/10-10-(8 veces)-----------------------
3--------------------------------------------

1--13-12-10---------------10/12-12---10/12---
2-----------12-10---8-10---------------------
3--------------------------------------------

Bueno ese es el intro,
un saludo para mis cuates de la tecnica 97
y el CNCI Atlalilco.





Calificar esta versión:
Aviso: Este fichero es trabajo propio de su transcriptor y representa su interpretación personal de la canción. El material contenido en esta página es para exclusivo uso privado, por lo que se prohibe su reproducción o retransmisión, así como su uso para fines comerciales.
Más versiones de La Flaca, Liran'Roll
La Flaca
acordes
La Flaca
tablatura
La Flaca (ver 2)
tablatura
Descubre más canciones de Liran'Roll