El último Viaje, Liran'Roll (tablatura)

Autor: Anónimo | 17825 visualizaciones



        ( x 4)
                                        pm....  pm .....
  ---------------------------------------------------------
  ---------------------------------------------------------
  ---------------------------------------------------------
  --9--11--12-11-9----9--11-12----9--7--5-55555-7--77777---
  --7--7---7--7--7----7--7--7-----7--5--3-33333-5--55555---
  ---------------------------------------------------------
           ( x 2)
  ---------------------------------------------------------
  ---------------------------------------------------------
  ---------------------------------------------------------
  ---------4--5--7--------------------------------------------
  -5---7---2--3--5-------------------------------------
  -3---5-------------------------------------------
          esto setoca varias veses durante el solo
  ---------------------------------------------------------
  ---------------------------------------------------------
  ---------------------------------------------------------
  -5-------------7---------------9-------------------------
  -3-------------5---------------7-------------------------
  ---------------------------------------------------------

  el solo da hueva suvirlo silo kieren mandenme un msg espero
      k les siva
         esta tab sikieren mas  solo mandenme un msg





Calificar esta versión:
Aviso: Este fichero es trabajo propio de su transcriptor y representa su interpretación personal de la canción. El material contenido en esta página es para exclusivo uso privado, por lo que se prohibe su reproducción o retransmisión, así como su uso para fines comerciales.
Más versiones de El último Viaje, Liran'Roll
El último Viaje
acordes
El último Viaje
tablatura
Descubre más canciones de Liran'Roll