Cuarto Para Las Dos, Liran'Roll (tablatura)

Autor: Anónimo | 40141 visualizaciones



soy yo otra vez con mas rock 

Estos son los punteos de esa rola de lira n´roll como ami 
me suena se toca con dos guitarras pero tambien se puede 
con una sola 

guitarra 1

e>------3-----------
b>---------1~3~1~3~1
g>----0-------------
d>------------------
a>------------------
e>-3----------------

guitarra 2

e>-------3----3---3--
b>----0-----1---1---1
g>-0----------------
d>------------------
a>------------------
e>------------------

para una guitarra sola se puede tocar asi


e>-------3----3---3--
b>----------1---1---1
g>----0--------------
d>-------------------
a>-------------------
e>-3-----------------


se repite lo mismo en todas las estrofas solo cambia el coro 
la rola se puede tocar con tres guitarras una guitarra ritmica 
y otras tocando los punteos.

 D           
 vamos a caminar
                   G
 al brillo de la luna
 F1              G
 te llevare a un lugar
 F1                    G
 que esta alla junto al mar

 G        F1
 ella me dijo...





Calificar esta versión:
Aviso: Este fichero es trabajo propio de su transcriptor y representa su interpretación personal de la canción. El material contenido en esta página es para exclusivo uso privado, por lo que se prohibe su reproducción o retransmisión, así como su uso para fines comerciales.
Más versiones de Cuarto Para Las Dos, Liran'Roll
Cuarto Para Las Dos
acordes
Cuarto Para Las Dos
tablatura
Descubre más canciones de Liran'Roll