Jardin, Liquits (bajo)

Autor: cower | 44755 visualizaciones



Intro (esperas 4 compases de bateria y empieza junto con la guitarra)
|-----------------|-----------------|-----------------|-----------------|
|-----------------|-----------------|-----------------|-----------------|
|--9?6------9-6---|--9-6------9-6---|--9-6------9-6---|--9-6------9-6---|
|7-----9--7-----9-|7-----9--7-----9-|7-----9--7-----9-|7-----9--7-----9-|

Verso 1
|-----------------|-----------------|-----------------|-----------------|
|-----------------|-----------------|-----------------|-----------------|
|--9?6------9-6---|--9-6------9-6---|-7-7-9-7-9-7-----|--9-6------9-6---|
|7-----9--7-----9-|7-----9--7-----9-|-------------11-9|7-----9--7-----9-|


Verso 2
|-----------------|-----------------|-----------------|-----------------|
|-----------------|-----------------|-----------------|-----------------|
|--9?6------9-6---|--9-6------9-6---|-7-7-9-7-9-7-----|--9-6------9-6---|
|7-----9--7-----9-|7-----9--7-----9-|-------------11-9|7-----9--7-----9-|


CORO
|-----------------|-----------------|-----------------|-----------------|
|-----------------|-----------------|-----4-------4---|----4-------4----|
|----?------------|-------11#-------|-7-44-4--7-44-4-7|--44-4--7-44-4---|
|---7---------7---|-----------------|-----------------|-----------------|


|-----------------|-----------------|
|-----------------|-----------------|
|--9?6------9-6---|--9-6------9-6---|
|7-----9--7-----9-|7-----9--7-----9-|


Verso 3
|-----------------|-----------------|-----------------|-----------------|
|-----------------|-----------------|-----------------|-----------------|
|--9?6------9-6---|--9-6------9-6---|-7-7-9-7-9-7-----|--9-6------9-6---|
|7-----9--7-----9-|7-----9--7-----9-|-------------11-9|7-----9--7-----9-|

Verso 4
|-----------------|-----------------|-----------------|-----------------|
|-----------------|-----------------|-----------------|-----------------|
|--9?6------9-6---|--9-6------9-6---|7-77-9-7-9-7-----|--9-6------9-6---|
|7-----9--7-----9-|7-----9--7-----9-|-------------11-9|7-----9--7-----9-|

CORO
|-----------------|-----------------|-----------------|-----------------|
|-----------------|-----------------|-----4-------4---|----4-------4----|
|----?------------|-------11#-------|-7-44-4--7-44-4-7|--44-4--7-44-4---|
|---7----------7--|-----------------|-----------------|-----------------|

|------------------|------------------|
|------------------|-----------4-6-9--|
|--9?6------9-6----|--9-6----6--------|
|7-----9--7-----9--|7-----9-----------|



Verso 5

|-----------------|-----------------|-----------------|-----------------|
|----------4-6-9--|----------4-6-9--|-----------------|----------4-6-9--|
|--9-6-?-6--------|--9-6---6--------|-7-7-9-7-9-7-----|--9-6---6--------|
|7-----9----------|7-----9----------|-------------11-9|7-----9----------|


Verso 6
|-----------------|-----------------|-----------------|-----------------|
|----------4-6-9--|----------4-6-9--|-----------------|----------4-6-9--|
|--9-6-?-6--------|--9-6---6--------|-7-7-9-7-9-7-----|--9-6---6--------|
|7-----9----------|7-----9----------|-------------11-9|7-----9----------|

Verso 7
|-----------------|-----------------|-----------------|-----------------|
|----------4-6-9--|9-6-4------------|-----------------|----------4-6-9--|
|--9-6-?-6--------|-------6-7-9-7---|-7-7-9-7-9-7-----|--9-6---6--------|
|7-----9----------|---------------9-|-------------11-9|7-----9----------|



CORO
|-----------------|-----------------|-----------------|-----------------|
|-----------------|-----------------|-----4-------4---|----4-------4----|
|----?------------|-------11#-------|-7-44-4--7-44-4-7|--44-4--7-44-4---|
|---7----------7--|-----------------|-----------------|-----------------|


|-------------------|------------------|
|-----4-------4-----|----4-------------|
|-7-44-4--7-44-4-7--|--44-4---4-2-1-0--|
|-------------------|------------------|


Comienza Guitarra, y esperas hasta que empiece
a sonar el bombo de la batería.


|-----------------|-----------------|-----------------|-----------------|
|-----------------|-----------------|-7-4-2-----------|-7-4-2-----------|
|----?---5-5-7-44-|--------5-5-7-44-|-------4-5-7-5---|-------4-5-7-5---|
|5-5-5-5---------4|5-5-5-5---------4|---------------5-|---------------5-|

|-----------------|-----------------|-----------------|-----------------|
|-7-4-2-----------|-7-4-2-----------|-7-4-2-----------|-7-4-2-----------|
|----?-4-5-7-5----|-------4-5-7-5---|-------4-5-7-5---|-------4-5-7-5---|
|--------------5--|---------------5-|----------------5|----------------5|

Asi continua hasta terminar



lacuerda.net





Calificar esta versión:
Aviso: Este fichero es trabajo propio de su transcriptor y representa su interpretación personal de la canción. El material contenido en esta página es para exclusivo uso privado, por lo que se prohibe su reproducción o retransmisión, así como su uso para fines comerciales.
Más versiones de Jardin, Liquits
Jardin
acordes
Jardin
bajo
Descubre más canciones de Liquits