Desde Que, Liquits (acordes)

Autor: d andres | 45567 visualizaciones

acsos7mdd7e


INTRO:

    D7                 C#7m
e---5----5----5---------4---4---4-------
B---7----7----7---------5---5---5-------
G---5----5----5---------4---4---4-------
D---7----7----7---------6---6---6-------
A---5----5----5---------4---4---4-------
E---5----5----5---------4---4---4-------

Intro sigue en ?LA? con ritmo de ska.
                ||
      A          A         A 
e-----5----------5---------5----------
B-----5----------5---------5----------
G-----6----------6---------6----------
D-----7----------7---------7----------
A-----7----------7---------7----------
E-----5----------5---------5----------..SE REPITE VARIAS VECES

NOTA:  D7 SE TOCA COMO UN RIFF, RAPIDO

A        D7     A                 D7
Te senti venir, como en una vision
A            D7  A 
Ya estas aquí    y mi mente exploto
           A 
Desde que? estas conmigo
A               E
Todo brilla con otro color

A                                   A 
Desde que? pa, pa, pa,pa - pa, pa,- pa,paaaaa
           A 
           pa, pa, pa,pa - pa, pa,- pa,paaaaa

A              D7  A                 D7
Volemos tu y yo,   en esta inmensidad
A                 D7  A                     D7
No hay droga mejor,   que en tus brazos estar
      A               D7
Desde que? estas conmigo
A                    E
Veo que ahora brilla mas el Sol 
       A             D
Desde que?  estoy contigo
   E                         A 
No se que paso, que te di mi corazon

Coro:
        E
Y ahora voooy
                  A 
Caminando junto a tiii
      E
Somos dos
                A 
nunca sola vas a ir


        E
Y ahora voooy
                 A 
Sonriendo junto a ti
      E
somos dos
                A 
juntos vamos a vivir

A
pa, pa, pa,pa - pa, pa,- pa,paaaaa
A
pa, pa, pa,pa - pa, pa,- pa,paaaaa
A
pa, pa, pa,pa - pa, pa,- pa,paaaaa

EL SIGUIENTE VERSO SE TOCA CON EL RITMO DE ?REGGAE?

A                 D7
voy pensando en ti
A                 D7
cuando lejos estoy
A                 D7
hoy pensaste en mi 
A                 D7
y mi mente exploto

A                     D7
Desde que? estas conmigo
A               E
La musica tiene otro sabor
       A             D
Desde que?  estas contigo
    E                          A 
No se que paso, que te di mi corazon


Coro:
        E
Y ahora voooy
                  A 
Caminando junto a tiii
      E
Somos dos
                A 
nunca sola vas a ir


        E
Y ahora voooy
                 A 
Sonriendo junto a ti
      E
somos dos
                A 
juntos vamos a vivir


?la parte que va chiflada?
   TAMBIEN VA EN ?LA?

        E
Y ahora voooy
                 A 
Sonriendo junto a ti
      E
somos dos
                A 
juntos vamos a vivir


FINAL:
    D7        E          A 
e---5--5--5---7--7--7----5-------
B---7--7--7---9--9--9----5-------
G---5--5--5---9--9--9----6-------
D---7--7--7---9--9--9----7-------
A---5--5--5---7--9--9----7-------
E---5--5--5---7--7--7----5-------





Calificar esta versión:
Aviso: Este fichero es trabajo propio de su transcriptor y representa su interpretación personal de la canción. El material contenido en esta página es para exclusivo uso privado, por lo que se prohibe su reproducción o retransmisión, así como su uso para fines comerciales.
Más versiones de Desde Que, Liquits
Desde Que
acordes
Desde Que
bajo
Desde Que (ver 2)
bajo
Descubre más canciones de Liquits