Cuando Apagues La Luz, Liquits (bajo)

Autor: Molotov | 40808 visualizaciones



ps q onda a qui les dejo este bass
es de una chida rola de estos tiposrifan y ps este
es el tab q uso para el cover con Oxido Band ok??...

Canción: Cuando Apagues La Luz
Autor: Liquitis
Álbum: Jardín
Armonizada en: Dm
Bajo:

Intro:
Esto en 2da y/o 1era Posición
G------------------------------
D------------------------------
A---5---5-3---3-5---5--1--3----
E----------------------------X2

Cuando Apagues la luz? bla, bla.
G---------------------------------------------------------------
D---------------------------------------------------------------
A-5-5-5-5-5-5-5-5-3-3-3-3-3-3-3-5-5-5-5-5-5-5-------------------
E---------------------------------------------6-6-6-6-6-6-6-6-X2

G------------------------------
D------------------------------
A---5---5-3---3-5---5--1--3----
E------------------------------

G---------------------------------------------------------------
D---------------------------------------------------------------
A-5-5-5-5-5-5-5-5-3-3-3-3-3-3-3-5-5-5-5-5-5-5-------------------
E---------------------------------------------6-6-6-6-6-6-6-6---

Porque los Ojos Ciegan?
G---------------------------------------------------------------
D---------------------------------------------------------------
A?5-5-5-5-5-5-5-5-3-3-3-3-3-3-3-5-5-5-5-5-5-5-5-----------------
E-----------------------------------------------6-6-6-6/8-8-8-8-

G---------------------------------------------------------------
D---------------------------------------------------------------
A-5-5-5-5-5-5-5-5-3-3-3-3-3-3-3---------------------------------
E-------------------------------6-6-6-6-6-6-6-6/8-8-8-8-8-8-8-8-

Me vas a conocer?
G-------------------------------------------------------
D-------------------------------------------------------
A---------------3-3--3-3-3?--5-5--5-5-5-----------------
E----1-1--1-1-1--------------------------6-6--6-6-6-----

Puente:
G------------------------------
D------------------------------
A---5---5-3---3-5---5--1--3----
E----------------------------X2


Porque los Ojos Ciegan?
G---------------------------------------------------------------
D---------------------------------------------------------------
A?5-5-5-5-5-5-5-5-3-3-3-3-3-3-3-5-5-5-5-5-5-5-5-----------------
E-----------------------------------------------6-6-6-6/8-8-8-8-

G---------------------------------------------------------------
D---------------------------------------------------------------
A-5-5-5-5-5-5-5-5-3-3-3-3-3-3-3---------------------------------
E-------------------------------6-6-6-6-6-6-6-6/8-8-8-8-8-8-8-8-

Me vas a conocer?
G-------------------------------------------------------
D-------------------------------------------------------
A---------------3-3--3-3-3?--5-5--5-5-5-----------------
E----1-1--1-1-1--------------------------6-6--6-6-6-----x4

Acompañamiento de Solo:
G-------------------------------
D-------------------------------
A-------------------------------
E---3-3-3-3-3-3?6-6-6?8-8-8-8?X3

Puente:
G----------9-9-9-9-9-9-9-9-9-9-9-9-9--
D-------------------------------------
A---5---------------------------------
E-------------------------------------
             (Meter Un Crescendo
Me vas a conocer?
G------------------------------------------------------
D------------------------------------------------------
A---------------3-3--3-3-3?--5-5--5-5-5----------------
E---1-1--1-1-1--------------------------6-6--6-6-6----X4

Me vas a conocer 
G---------------------------------------------------------------
D---------------------------------------------------------------
A?5-5-5-5-5-5-5-5-3-3-3-3-3-3-3-5-5-5-5-5-5-5-5-----------------
E-----------------------------------------------6-6-6-6/8-8-8-8-

G-----------------------------------------------------------------
D-----------------------------------------------------------------
A-5-5-5-5-5-5-5-5-3-3-3-3-3-3-3-----------------------------------
E-------------------------------6-6-6-6-6-6-6-6/8-8-8-8-8-8-8-8-X4
Final:
G---------------------------------
D---------------------------------
A---5---5-3---3-5---5--1--3----5--
E---------------------------------



listoooo... a me corriguen el album porfa no?





Calificar esta versión:
Aviso: Este fichero es trabajo propio de su transcriptor y representa su interpretación personal de la canción. El material contenido en esta página es para exclusivo uso privado, por lo que se prohibe su reproducción o retransmisión, así como su uso para fines comerciales.
Más versiones de Cuando Apagues La Luz, Liquits
Cuando Apagues La Luz
tablatura
Cuando Apagues La Luz
bajo
Descubre más canciones de Liquits