Chicharos Magicos, Liquits (tablatura)

Autor: gaia_24 | 15152 visualizaciones



ME TARDE MUCHO EN SAKARLA PERO AKI ESTA:

verso 1
e|-------------------------------|
b|-------8---------------7-------|esto se repite varias veces
g|----7-----7---------6-----6----|hasta k se akabe el primer 
D|-5---------------4-------------|verso...
A|-------------------------------|
E|-------------------------------|


verso 2
e|-------------------------------|
b|-------13----------------12----| esto se repite varias veces
g|----12-----12---------11-----11| hasta k se akabe el segundo 
D|-10---------------9------------| verso...
A|-------------------------------|
E|-------------------------------|
 

mientras dicen : "vendo agua de frutas natural..."
e|------------------|
b|------------------| 
g|--9--7--6--7--9---| 
D|-11--9--7--9--11--| 
A|------------------|
E|------------------|

DESPUES SE REPITE OTRA VEZ EL IER Y EL 2DO VERSO...


Y LUEGO KON DISTORSION:

e|-6--5--6--5--6---|
b|-6--5--6--5--6---| 
g|-6--5--6--5--6---| X2
D|-8--7--8--7--8---| 
A|-8--7--8--7--8---|
E|-6--5--6--5--6---|


ESTO VA MAS TRANKILO:
e|----------------------0-----------5/2--|
b|---------3-----------------------------|
g|---0---0--------0---0-------0---0------|
D|-----2------------2-----------2--------|
A|-3------------3-----------3------------|
E|---------------------------------------|


LUEGO SE REPITE MUCHAS VECES ESTO HASTA K TERMINE LA KNCION:

e|-------------------------|
b|-------------------------|
g|---0---0---0---0---0---0-|
D|-----2-------2-------2---| 
A|-3-------3-------3-------|   
E|-------------------------|





Comentarios del colaborador: me tarde bastante sacando esta cancion. en lo que mas me tarde fue en el arpegio.

Calificar esta versión:
Aviso: Este fichero es trabajo propio de su transcriptor y representa su interpretación personal de la canción. El material contenido en esta página es para exclusivo uso privado, por lo que se prohibe su reproducción o retransmisión, así como su uso para fines comerciales.
Más versiones de Chicharos Magicos, Liquits
Chicharos Magicos
tablatura
Chicharos Magicos (ver 2)
tablatura
Chicharos Magicos (ver 3)
tablatura
Chicharos Magicos (ver 4)
tablatura
Descubre más canciones de Liquits