Hit The Floor, Linkin Park (tablatura) (ver 2)

Autor: MaKi | 29742 visualizaciones



Se que hay gente que tiene esta agregada pero se dejan algo, y es una parte que esta por el final 
a si que voi a poner la cancion entera. se que como lo he escrito es largo per es para evitar confusiones

Intro:

E|----------------|
B|----------------|
G|----------------|
D|----------------|
A|----------------|
e|-0-4-0-1-1-1-0--|x4

Estribillo:

E|--------------------------------|
B|--------------------------------|
G|--------------------------------|
D|-0-8-8-8-7-------0-4-0-1-1-1-0--|
A|-0-8-8-8-7-------0-4-0-1-1-1-0--|
e|-0-8-8-8-7-------0-4-0-1-1-1-0--|x4

Verso:

E|----------------|
B|----------------|
G|----------------|
D|----------------|
A|----------------|
e|-0-4-0-1-1-1-0--|x7

Estribillo 2:

E|--------------------------------|
B|--------------------------------|
G|--------------------------------|
D|-0-8-8-8-7-------0-4-0-1-1-1-0--|
A|-0-8-8-8-7-------0-4-0-1-1-1-0--|
e|-0-8-8-8-7-------0-4-0-1-1-1-0--|x4

E|--------------------------------|
B|--------------------------------|
G|--------------------------------|
D|-0-8-8-8-7----------------------|
A|-0-8-8-8-7----------------------|
e|-0-8-8-8-7-------0-4-0-1-1-1-0--|

Verso 2:

E|----------------|
B|----------------|
G|----------------|
D|----------------|
A|----------------|
e|-0-4-0-1-1-1-0--|x7

Estribillo 3:

E|--------------------------------|
B|--------------------------------|
G|--------------------------------|
D|-0-8-8-8-7-------0-4-0-1-1-1-0--|
A|-0-8-8-8-7-------0-4-0-1-1-1-0--|
e|-0-8-8-8-7-------0-4-0-1-1-1-0--|x5

Chorus:

E|------------------|
B|------------------|
G|------------------|
D|------------------|
A|------------------|
e|-0-0-0-3--0-0-0-1-|x2

Verso 3:

E|----------------|
B|----------------|
G|----------------|
D|----------------|
A|----------------|
e|-0-4-0-1-1-1-0--|x4

Estribillo 4:

E|----------------|
B|----------------|
G|----------------|
D|-0-4-0-1-1-1-0--|
A|-0-4-0-1-1-1-0--|
e|-0-4-0-1-1-1-0--|

E|--------------------------------|
B|--------------------------------|
G|--------------------------------|
D|-0-8-8-8-7-------0-4-0-1-1-1-0--|
A|-0-8-8-8-7-------0-4-0-1-1-1-0--|
e|-0-8-8-8-7-------0-4-0-1-1-1-0--|x3

E|------------|
B|------------|
G|------------|
D|-0-8-8-8-7--|
A|-0-8-8-8-7--|
e|-0-8-8-8-7--|

Chorus 2:

E|------------------|
B|------------------|
G|------------------|
D|------------------|
A|------------------|
e|-0-0-0-3--0-0-0-1-|x2

Final:

E|----------------|
B|----------------|
G|----------------|
D|-0-4-0-1-1-1-0--|
A|-0-4-0-1-1-1-0--|
e|-0-4-0-1-1-1-0--|

E|--------------------------------|
B|--------------------------------|
G|--------------------------------|
D|-0-8-8-8-7-------0-4-0-1-1-1-0--|
A|-0-8-8-8-7-------0-4-0-1-1-1-0--|
e|-0-8-8-8-7-------0-4-0-1-1-1-0--|





Calificar esta versión:
Aviso: Este fichero es trabajo propio de su transcriptor y representa su interpretación personal de la canción. El material contenido en esta página es para exclusivo uso privado, por lo que se prohibe su reproducción o retransmisión, así como su uso para fines comerciales.
Más versiones de Hit The Floor, Linkin Park
Hit The Floor
tablatura
Hit The Floor (ver 2)
tablatura
Descubre más canciones de Linkin Park