Forgotten, Linkin Park (bajo)

Autor: shadow070894 | 20449 visualizaciones



Forgotten
Intro 

G|-------------------|-------------------|-------------------|-------------------|---|
D|-------------------|-------------------|-------------------|-------------------|---|
A|-------------------|-------------------|-------------------|-------------------|---|
E|-5-4--4--4--4-5-4?4|-5-4--4--4--4-5-4?4|-5-4--4--4--4-5-4?4|-5-4--4--4--4-5-4?4|-7-|

Verse

G|-------------------------------------|------------|-------------------------------------|
D|-------------------------------------|-----2------|-------------------------------------|
A|------6---7---6----------------------|------------|------6---7---6----------------------|
E|---4-------------7------7---7---4---2|-------4----|---4-------------7------7---7---4---2|

G|-------------------------------------|------------|-------------------------------------|
D|-------------------------------------|-----2------|-------------------------------------|
A|------6---7---6----------------------|------------|------6---7---6----------------------|
E|---4-------------7------7---7---4---2|-------4----|---4-------------7------7---7---4---2|

Pre-coro

G|-------------------|-------------------|---|
D|-------------------|-------------------|---|
A|-------------------|-------------------|---|
E|-5-4--4--4--4-5-4?4|-5-4--4--4--4-5-4?4|-7-|

Coro

G|-----------------------------------------------|-----------------------------------------------|
D|-----------------------------------------------|-----------------------------------------------|
A|-----------6---7-------------------------------|-----------6---7-------------------------------|
E|---4---4-----------7---7---7---7---6---7---7---|---4---4-----------7---7---7---7---6---7---7---|

G|-----------------------------------------------|-----------------------------------------------|
D|-----------------------------------------------|-----------------------------------------------|
A|-----------6---7-------------------------------|-----------6---7-------------------------------|
E|---4---4-----------7---7---7---7---6---7---7---|---4---4-----------7---7---7---7---6---7---7---|

Verse:

G|---------------------------------|---------------------------------|---------------------------------|
D|---------------------------------|---------------------------------|---------------------------------|
A|---6---7---6---------------------|---6---7---6---------------------|---6---7---6---------------------|
E|4-------------7-----7---7---4---2|4-------------7-----7---7---4---2|4-------------7-----7---7---4---2|

G|---------------------------------|---------------------------------|------------|
D|---------------------------------|---------------------------------|-----2------|
A|---6---7---6---------------------|---6---7---6---------------------|------------|
E|4-------------7-----7---7---4---2|4-------------7-----7---7---4---2|-------4----|

Pre-coro 

G|-------------------|-------------------|-------------------|-------------------|---|
D|-------------------|-------------------|-------------------|-------------------|---|
A|-------------------|-------------------|-------------------|-------------------|---|
E|-5-4--4--4--4-5-4?4|-5-4--4--4--4-5-4?4|-5-4--4--4--4-5-4?4|-5-4--4--4--4-5-4?4|-7-|

Coro

G|-----------------------------------------------|-----------------------------------------------|
D|-----------------------------------------------|-----------------------------------------------|
A|-----------6---7-------------------------------|-----------6---7-------------------------------|
E|---4---4-----------7---7---7---7---6---7---7---|---4---4-----------7---7---7---7---6---7---7---|

G|-----------------------------------------------|-----------------------------------------------|
D|-----------------------------------------------|-----------------------------------------------|
A|-----------6---7-------------------------------|-----------6---7-------------------------------|
E|---4---4-----------7---7---7---7---6---7---7---|---4---4-----------7---7---7---7---6---7---7---|

Puente

G|---------------------------------------------|---------------------------------------------|
D|---6---6---4---6-----------------------------|---6---6---4---6-----------------------------|
A|---------------------7---7---7---7---6-7-7---|---------------------7---7---7---7---6-7-7---|
E|---------------------------------------------|---------------------------------------------|

G|---------------------------------------------|---------------------------------------------|
D|---6---6---4---6-----------------------------|---6---6---4---6-----------------------------|
A|---------------------7---7---7---7---6-7-7---|---------------------7---7---7---7---6-7-7---|
E|---------------------------------------------|---------------------------------------------|

G|---------------------------------------------|---------------------------------------------|
D|---6---6---4---6-----------------------------|---6---6---4---6-----------------------------|
A|---------------------7---7---7---7---6-7-7---|-----------------7---7---7---7---6-7-7-------|
E|---------------------------------------------|---------------------------------------------|

Coro 

G|-----------------------------------------------|-----------------------------------------------|
D|-----------------------------------------------|-----------------------------------------------|
A|-----------6---7-------------------------------|-----------6---7-------------------------------|
E|---4---4-----------7---7---7---7---6---7---7---|---4---4-----------7---7---7---7---6---7---7---|

G|-----------------------------------------------|-----------------------------------------------|
D|-----------------------------------------------|-----------------------------------------------|
A|-----------6---7-------------------------------|-----------6---7-------------------------------|
E|---4---4-----------7---7---7---7---6---7---7---|---4---4-----------7---7---7---7---6---7---7---|

G|-----------------------------------------------|-----------------------------------------------|
D|-----------------------------------------------|-----------------------------------------------|
A|-----------6---7-------------------------------|-----------6---7-------------------------------|
E|---4---4-----------7---7---7---7---6---7---7---|---4---4-----------7---7---7---7---6---7---7---|

G|-----------------------------------------------|
D|-----------------------------------------------|
A|-----------6---7-------------------------------|
E|---4---4-----------7---7---7---7---6---7---7---|





Calificar esta versión:
Aviso: Este fichero es trabajo propio de su transcriptor y representa su interpretación personal de la canción. El material contenido en esta página es para exclusivo uso privado, por lo que se prohibe su reproducción o retransmisión, así como su uso para fines comerciales.
Más versiones de Forgotten, Linkin Park
Forgotten
tablatura
Forgotten
bajo
Descubre más canciones de Linkin Park