Crawling, Linkin Park (tablatura) (ver 2)

Autor: daniel_metal | 37728 visualizaciones



Intro
E:-------18--15------------------------:
B:---------------18---16--15--16-------:
G:----17--------------------------17---:
D:-------------------------------------:
A:-------------------------------------:
E:-------------------------------------:

Miren el ritmo:
E:--------------------------------:
B:--------------------------------:
G:-------------------6---------4--:
D:-9x-9x-9x----------6--7---2--4--:
A:-9x-9x-9x----------4--7---2--2--:
E:-9x-9x-9x-------------5---0-----:

Asi va cuando empiezan a rapear:
E:-------16-----------14--16--:
B:---14------14---------------:
G:----------------------------:
D:----------------------------:
A:----------------------------:
E:----------------------------:

Coro
E:--------------:
B:--------------:
G:-6---------4--:
D:-6--7---2--4--:
A:-4--7---2--2--:
E:----5---0-----:






Calificar esta versión:
Aviso: Este fichero es trabajo propio de su transcriptor y representa su interpretación personal de la canción. El material contenido en esta página es para exclusivo uso privado, por lo que se prohibe su reproducción o retransmisión, así como su uso para fines comerciales.
Más versiones de Crawling, Linkin Park
Crawling
tablatura
Crawling (ver 2)
tablatura
Crawling (ver 3)
tablatura
Crawling (ver 4)
tablatura
Descubre más canciones de Linkin Park