A Place For My Head, Linkin Park (tablatura) (ver 3)

Autor: negr0 | 33439 visualizaciones



Intro
e-|-----------------------------------------------
B-|-----------------------------------------------
G-|-----------------------------------------------
D-|------9-9-9--10-9-6----------------------------
A-|-6--6---------------10--10--7-7-7-7-7-10-------
D-|-----------------------------------------------

e-|-----------------------------------------------
B-|-----------------------------------------------
G-|-----------------------------------------------
D-|------9-9-9--10-9-6----------------------------
A-|-6--6---------------10--10--7-7-7-10-7-10------
D-|-----------------------------------------------

ese es el intro y la parte del rap xao.





Calificar esta versión:
Aviso: Este fichero es trabajo propio de su transcriptor y representa su interpretación personal de la canción. El material contenido en esta página es para exclusivo uso privado, por lo que se prohibe su reproducción o retransmisión, así como su uso para fines comerciales.
Más versiones de A Place For My Head, Linkin Park
A Place For My Head
tablatura
A Place For My Head (ver 2)
tablatura
A Place For My Head (ver 3)
tablatura
Descubre más canciones de Linkin Park