Al Final, Lilly Goodman (tablatura)

Autor: Anónimo | 27331 visualizaciones

hola amigos solo quiero agregar a esta transcripcion la
tablatura del intro y el puente intermedio en las estrofas finales
de la cancion, que aunque en la cancion original suenan en piano,
pues esta es mi version en guitarra y suena muy bien.
espero que les guste.
ever martinez.
colombia.
manemartin@live.com

Intro:

     Em          Bm           C         G         D/F#
e----------3--2------------0----------------------------|
B-------0--------------3------------1---3-p-1--0--------|
G-------------------0------------0----------------2-----|
D----2-----------0------------2-------------------------|
A-------------------------------------------------------|
E-------------------------------------------------------|

     Em          Bm           C
e----------3--2------------0----------------------------|
B-------0--------------3------------1---3-p-1--0--------|
G-------------------0------------0----------------------|
D----2-----------0------------2-------------------------|
A-------------------------------------------------------|
E-------------------------------------------------------|


e----6-s-7-8-10----------|



       G                  D/F#
Yo he visto el dolor acercarse a mí
    Em                 D
Causarme heridas golpearme así
            C                             D
Y hasta llegue a preguntarme donde estabas Tú
     G                    D/F#
He hecho preguntas en mi aflicción
    Em                      D
Buscando respuestas sin contestación
           C                        Dsus4 D
Y hasta dude por instantes de tu compasión

      Em            C                     G    D/F#
Y aprendí que en la vida todo tiene un sentido
       Em            C         D
Y descubrí que todo obra para bien

           G     D/F#       Em             D
Y que al final será mucho mejor lo que vendrá
      C            G/B      Am          D
Es parte de un propósito y todo bien saldrá
              G     D/F#
Siempre has estado aquí
       Em            D
Tu palabra no ha fallado
    C            G/B
Y nunca me has dejado
    Am             D
Descansa mi confianza sobre Ti

     Em          Bm           C
e----------3--2------------0----------------------------|
B-------0--------------3------------1---3-p-1--0--------|
G-------------------0------------0----------------------|
D----2-----------0------------2-------------------------|
A-------------------------------------------------------|
E-------------------------------------------------------|


         G                      D/F#
Yo he estado entre la espada y la pared
   Em                       D
Rodeada de insomnios sin saber que hacer
    C                    D
Pidiendo a gritos tu intervención
    G                   D/F#
A veces me hablaste de una vez
     Em                 D
En otras tu silencio solo escuche
    C                           Dsus4 D
Que interesante tu forma de responder

      Em             C             G    D/F#
Y aprendí que lo que pasa bajo el cielo
        Em            C         D
Conoces Tu que todo tiene una razón

           G     D/F#       Em             D
Y que al final será mucho mejor lo que vendrá
      C            G/B      Am          D
Es parte de un propósito y todo bien saldrá
              G     D/F#
Siempre has estado aquí
       Em            D
Tu palabra no ha fallado
    C            G/B
Y nunca me has dejado
    Am             D         C
Descansa mi confianza sobre Ti

Puente final:
                    D           B7             C
e--7-s-8--7--------------3-s-5-----0--2-4-s-5--5--3-----|
B------------8--10--7-----------4-----------------------|

           Am
e--9-s-10--10--8--8--7-7--5--3--------------------------|

   Bm                        Dsus4 D
e--7-s-8--7-7-5--5--3--2--3--5--------------------------|



           G     D/F#       Em             D
Y que al final será mucho mejor lo que vendrá
      C            G/B      Am          D
Es parte de un propósito y todo bien saldrá
              G     D/F#
Siempre has estado aquí
       Em            D
Tu palabra no ha fallado
    C            G/B
Y nunca me has dejado
    Am             D
Descansa mi confianza sobre Ti

     Em          Bm           C         G         D/F#
e----------3--2------------0----------------------------|
B-------0--------------3------------1---3-p-1--0--------|
G-------------------0------------0----------------2-----|
D----2-----------0------------2-------------------------|
A-------------------------------------------------------|
E-------------------------------------------------------|

     Em          Bm           C
e----------3--2------------0----------------------------|
B-------0--------------3------------1---3-p-1--0--------|
G-------------------0------------0----------------------|
D----2-----------0------------2-------------------------|
A-------------------------------------------------------|
E-------------------------------------------------------|
Calificar esta versión:
Aviso: Este fichero es trabajo propio de su transcriptor y representa su interpretación personal de la canción. El material contenido en esta página es para exclusivo uso privado, por lo que se prohibe su reproducción o retransmisión, así como su uso para fines comerciales.
Más versiones de Al Final, Lilly Goodman
Al Final
acordes
Al Final
tablatura
Descubre más canciones de Lilly Goodman