You And Me, Lifehouse (tablatura)

Autor: dunkelvolk | 38502 visualizaciones



Intro :
     G       C2     G/F#    G/B     Em7     Dsus     C2
E----3-------3-------3-------3-------3-------3-------3-----3---|
B----3-------3-------3-------3-------3-------3-------3-----3---|
G----0-------0-------0-------0-------0-------2-------0-----0---|
D----0-------x-------0-------0-------2-------0-------0h2---X---|
A----x-------3-------X-------2-------2-------0-------3-----3---|
E----3-------x-------2-------x-------0-------2-------X-----x---|


     G          C2       G/F#       G/B
E----3-----------3-------3-----------3-------|
B----3-----------3-------3-----------3-------|
G----0-----------0-------0-----------0-------|
D----0-----------X-------0-----------0-------|
A----x-----------3-------X-----------2-------|
E----3-----------X-------2-----------0-------|
    What day is it?     And in what month


         Em7         Dsus      C2
E---------3-----------3--------3-------3--|
B---------3-----------3--------3-------3--|
G---------0-----------2--------0-------0--|
D---------2-----------0--------0h2-----X--|
A---------2-----------0--------3-------3--|
E---------0-----------2--------0-------X--|
   This clock never seemed so alive


Coro:

            G      Asus     C2
E-----------3-------3-------3------------|
B-----------3-------3-------3------------|
G-----------0-------0-------0------------|
D-----------0-------2-------X------------|
A-----------X-------0-------3------------|
E-----------3-------X-------X------------|
Cause it's you and me and all other people

         Em7        G    Em7      Dsus
E--------3----------3-----3--------3-------|
B--------3----------3-----3--------3-------|
G--------0----------0-----0--------2-------|
D--------2----------0-----2--------0-------|
A--------2----------x-----2--------0-------|
E--------0----------3-----0--------2-------|
   With nothing to do, nothing to lose


            G      Asus     C2
E-----------3-------3-------3----------------|
B-----------3-------3-------3----------------|
G-----------0-------0-------0----------------|
D-----------0-------2-------X----------------|
A-----------X-------0-------3----------------|
E-----------3-------X-------0----------------|
Cause it's you and me and all other people

         Em7          G      Em7             Dsus        C2
E--------3------------3------3----------------3----------3------|
B--------3------------3------3----------------3----------3------|
G--------0------------0------0----------------2----------0------|
D--------2------------0------2----------------0----------x------|
A--------2------------x------2----------------0----------3------|
E--------0------------3------0----------------2----------x------|
     And I don't know why,   I can't keep my eyes off of you.



Bridge

     Bm        C             G       D2           Em7
E----2---------0-------------3-------0------------3-----------|
B----3---------1-------------3-------3------------3-----------|
G----4---------0-------------0-------2------------0-----------|
D----4---------2-------------0-------0------------2-------2---|
A----2---------3-------------x-------0------------2-----0---2-|
E----x---------0-------------3-------0------------0-2-3-------|
    Something about you now, I can't quite figure out.



     Am                    D2
E----0---------------------0----------------|
B----1---------------------3----------------|
G----2---------------------2----------------|
D----2---------------------0----------------|
A----0---------------------0----------------|
E----0---------------------0----------------|
Everything she does is beautiful


     Bm                    Cm
E----2---------------------3-------|
B----3---------------------4-------|
G----4---------------------5-------|
D----4---------------------5-------|
A----2---------------------3-------|
E----x---------------------x-------|
Everything she does is right.





Calificar esta versión:
Aviso: Este fichero es trabajo propio de su transcriptor y representa su interpretación personal de la canción. El material contenido en esta página es para exclusivo uso privado, por lo que se prohibe su reproducción o retransmisión, así como su uso para fines comerciales.
Más versiones de You And Me, Lifehouse
You And Me
acordes
You And Me (ver 2)
acordes
You And Me (ver 3)
acordes
You And Me
tablatura
Descubre más canciones de Lifehouse