En Esta Habitacion, Libido (acordes) (ver 2)

Autor: antono1000 | 22144 visualizaciones

adefsosm


 INTRO
              E -----7--------7-----7--
              B --7-----7--------7-----
              G -----------9-----------
              D -----------------------
              A -----------------------
              E -----------------------

solo 1:

e|-----------------------12----14--14---12----
b|--------------------------------------------
g|--14--11--14--11-11-14----------------------
D|--------------------------------------------
A|--------------------------------------------
E|--------------------------------------------
                                                         2 veces
e|----------------------12---14--12-----------
b|--------------------------------------------
g|-14--11--14--11-11-14-----------------------
D|--------------------------------------------
A|--------------------------------------------
E|--------------------------------------------


   F#m     D   A   E
  Tanto Tanto Tanto,
    F#m         D       A   E
  Tiempo al Tiempoo
   F#m     D      A  E
  Tanto Tanto Tanto,
    F#m   D   A  E
  Tiempoo..


F#m             D       A      E
  Estoy sintiendome solo, en este corazón
F#m      D        A  E
  Silencios de odio
F#m           D            A       E
  Estoy volviendo yo a verte, en esta solución
F#m     D         A   E
  Momentos de agovio óh.



   F#m     D     A  E          |
  Tanto Tanto Tanto,           |
    F#m   D  A   E             |  ESTO VA JUNTO CON EL 'SOLO 1'
  Tiempoo..                    |
                               |



F#m            D           A      E
  [Estoy cayendo en tu mente, en toda tu pasión
F#m         D         A  E
  En esta tela de araña]
F#m           D       A         E          F#m
  Estoy rozando tu vientre, en mi imaginación
     D       A    E
  Deseos de hombre


F#m      D      A           E             |
Recuerdo tu nombre [en esta habitación  |
F#m         D    A     E                  |    ESTO VA JUNTO CON EL 'SOLO 2'
  Tus labios tus besos]                   |    EL DE ACÂ ABAJO.
F#m      D      A           E             |
  Recuerdo tu nombre en esta habitación   |
F#m         D     A    E                  |
  Tu cuerpo tu anhelo                     |


SOLO 2:
[ 2 veces ]
e|------------------------------------------------
b|-----------------------------------12-----------
g|-14-14-13-14---14-13-14---14-13-14----14-13-13--
D|------------------------------------------------
A|------------------------------------------------
E|------------------------------------------------

e|----------------------------------------------
b|----------------------------------------------
g|-14-14-13-14---14-13-14---14-13-14-14-13-13-13
D|----------------------------------------------
A|----------------------------------------------
E|----------------------------------------------

 Acá se toca el 'SOLO 1'

F#m        D        A          E

SOLO 3:

e|----------------------------------------------
b|----------------------------------------------
g|--4~--4-2---2----2----------------------------
D|----------4---4----4---2---2-4----------------
A|---------------------4---4--------------------
E|----------------------------------------------

e|-------------------------------------5--5-----
b|-----------------------------5---5-7---7-7----
g|--2--4~4~4~--2-2-----2---4/6---6--------------
D|------------4----4-4---4----------------------
A|----------------------------------------------
E|----------------------------------------------

e|------------------------------------------0/3-
b|-7-7-7-7-7-7-7-7----------------------0/3-----
g|-----------------2-4-4-2---2-----2------------
D|-------------------------4---4-4---4----------
A|----------------------------------------------
E|----------------------------------------------

e|----------------------------------------------
b|----------------------5---7-5-5/7~~-----------
g|-2-2-4-2-4-2---2--4-6---6---------------------
D|-------------4--------------------------------
A|----------------------------------------------
E|----------------------------------------------
F#m
  Recuerdo [recuerdo]... ¡en esta habitación!
F#m         D       A    E
  Tus labios tus besos
F#m      D        A      E
  Recuerdo tu nombre en esta habitación
F#m       D       A    E
  Tu cuerpo tu anhelo



   F#m     D   A   E
  Tanto Tanto Tanto,
    F#m         D       A   E
  Tiempoooo...
   F#m     D   A   E
  Tanto Tanto Tanto,
    F#m   D A   E
  Tiempo...


   F#m      D   A                    |
  Tanto Tanto Tanto,                 |
        E            F#m  D  A  E    |
  En esta habitación                 |    CON 'SOLO 1'
   F#m      D  A                     |
  Tanto Tanto Tanto,                 |
        E            F#m  D A  E     |
  En esta habitación                 |



'SOLO 2'


E -------------------------
B -------------------------
G --2/4-2------------------
D --------4-2--------------
A ------------4--4-2-------
E -------------------------


F#m       D        A         E

F#m       D        A         E

F#m       D        A         E

F#m       D        A         E

F#m       D        A         E

F#m          D            A            E

 





Calificar esta versión:
Aviso: Este fichero es trabajo propio de su transcriptor y representa su interpretación personal de la canción. El material contenido en esta página es para exclusivo uso privado, por lo que se prohibe su reproducción o retransmisión, así como su uso para fines comerciales.
Más versiones de En Esta Habitacion, Libido
En Esta Habitación
acordes
En Esta Habitacion (ver 2)
acordes
En Esta Habitación
tablatura
En Esta Habitación (ver 2)
tablatura
En Esta Habitación (ver 3)
tablatura
En Esta Habitación (ver 4)
tablatura
En Esta Habitación (ver 5)
tablatura
En Esta Habitación
bajo
Descubre más canciones de Libido