Culpable, Líbido (tablatura) (ver 2)

Autor: Anónimo | 17898 visualizaciones



TRANSCRIPTOR : CESAR UBIDIA HOYOS
Esta es mi primer aporte a la pagina, espero q les guste......



e/---10----10-10-12-12--------------10-12--------10----------------
b/---12-12----12-12-12-12-12-----12-12-12-----12-12-12-10----------
g/---12-12-------12-12-----------------------------------12-12-12--
D/-----------------------------------------------------------------
A/-----------------------------------------------------------------
E/-----------------------------------------------------------------



e/---10----10-10-12-12--15-15---15-15-15-17-15-19-18-17-15---------
b/---12-12----12-12-12--13-13---------------------------12---------
g/---12-12-------12-12---------------------------------------------
D/-----------------------------------------------------------------
A/-----------------------------------------------------------------
E/-----------------------------------------------------------------


(PRIMERA ESTROFA)

e/---7------
b/---8------
g/---9------
D/---9------
A/----------
E/----------

No me he sentido culpable

e/---8------
b/---8------
g/---9------
D/---9------
A/----------
E/----------

de no entregarte un poco más

e/---6--7---
b/---7--8---
g/---6--7---
D/----------
A/----------
E/----------

de haber llegado muy tarde

e/---8------
b/---8------
g/---9------
D/---9------
A/----------
E/----------

y de tener que explicar.........




e/---7-7-----
b/---8-8-----
g/---9-9-----
D/---9-9-----
A/----------
E/----------

No me he sentido culpable

e/---8--7---6--7--
b/---8--8---7--8--
g/---9--8---6--7--
D/---9--9---------
A/----------------
E/----------------

de no acercarme un poco más

e/---7------
b/---8------
g/---9------
D/---9------
A/----------
E/----------
de relajar mi semblante


e/---8----7-
b/---8----8-
g/---9----7-
D/---9------
A/----------
E/----------

y defender mi lugar................



e/--7------7------7------7------8------8------7------7------
b/---8--8---8--8---8--8---8--8---8--8---8--8---8--8---8--8--
g/----7------7------7------7------7------7------7------7----
D/----------------------------------------------------------
A/----------------------------------------------------------
E/----------------------------------------------------------

Estoy pensando en ir,y no puedo

e/--7------7------7------7------8------8-----
b/---8--8---8--8---8--8---8--8---8--8---8--8-
g/----7------7------7------7------7------7---
D/-------------------------------------------
A/-------------------------------------------
E/-------------------------------------------


Estoy tratando de ver algo mejor...............


e/--------------------------------------------------
b/--------------------------------------------------
g/--------------------------------------------------
D/-----------------------------------------2--------
A/-----------2-5-4-2-0-----------------2-5--4-2-0-2-
E/--0--0-0-3-----------3------0--0-0-3--------------


e/-------------------------------------------------------------------
b/-------------------------------------------------------------------
g/-------------------------------------------------------------------
D/---------------------------1/0---0-01-1~3-1-0---0-1-1~3-1--0p1p0--
A/-----------2-5-4-2-0-----------3---------------3-------------------
E/--0--0-0-3-----------3---------------------------------------------

(Aqui entra un pequeño arpegio con una tercera guitarra)

e/---10----10-10-12-12--------------10-12--------10----------------
b/---12-12----12-12-12-12-12-----12-12-12-----12-12-12-10----------
g/---12-12-------12-12-----------------------------------12-12-12--
D/-----------------------------------------------------------------
A/-----------------------------------------------------------------
E/-----------------------------------------------------------------



e/---10----10-10-12-12--15-15---15-15-15-17-15-19-18-17-15---------
b/---12-12----12-12-12--13-13---------------------------12---------
g/---12-12-------12-12---------------------------------------------
D/-----------------------------------------------------------------
A/-----------------------------------------------------------------
E/-----------------------------------------------------------------


(BAJO)


e/--7------7------7------7------8------8------7------7------
b/---8--8---8--8---8--8---8--8---8--8---8--8---8--8---8--8--
g/----7------7------7------7------7------7------7------7----
D/----------------------------------------------------------
A/----------------------------------------------------------
E/----------------------------------------------------------

Estoy pensando en ti y no me afecta

e/--7------7------7------7------8------8-----
b/---8--8---8--8---8--8---8--8---8--8---8--8-
g/----7------7------7------7------7------7---
D/-------------------------------------------
A/-------------------------------------------
E/-------------------------------------------

Estoy tratando de ver algo mejor


(ESTA ESTROFA ES IGUAL A LA PRIMERA ESTROFA)

No me he sentido culpable

de alejarme así nada más

perdona se me hizo tarde

quizá me tenga que largar

e/--------------------------------------------------
b/--------------------------------------------------
g/--------------------------------------------------
D/-----------------------------------------2--------
A/-----------2-5-4-2-0-----------------2-5--4-2-0-2-
E/--0--0-0-3-----------3------0--0-0-3--------------


e/-------------------------------------------------------------------
b/-------------------------------------------------------------------
g/-------------------------------------------------------------------
D/---------------------------1/0---0-01-1~3-1-0---0-1-1~3-1--0p1p0--
A/-----------2-5-4-2-0-----------3---------------3-------------------
E/--0--0-0-3-----------3---------------------------------------------

(Aqui entra un pequeño arpegio con una tercera guitarra)

e/---10----10-10-12-12--------------10-12--------10----------------
b/---12-12----12-12-12-12-12-----12-12-12-----12-12-12-10----------
g/---12-12-------12-12-----------------------------------12-12-12--
D/-----------------------------------------------------------------
A/-----------------------------------------------------------------
E/-----------------------------------------------------------------



e/---10----10-10-12-12--15-15---15-15-15-17-15-19-18-17-15---------
b/---12-12----12-12-12--13-13---------------------------12---------
g/---12-12-------12-12---------------------------------------------
D/-----------------------------------------------------------------
A/-----------------------------------------------------------------
E/-----------------------------------------------------------------


ESTA TABLATURA FUE TRANSCRITA POR "CESAR UBIDIA HOYOS", INTEGRANTE DEL
GRUPO MUSICAL "ATAME", LLAMADO ASI EN HONOR A ESTA WEB ;)  LIMA - PERU.

BUENO ESPERO Q LES GUSTE, UN SALUDO A TODOS MIS PATAS GUITARREROS DE LA
"UNIVERSIDAD PRIVADA SAN JUAN BAUTISTA" CROWX Y MIGUEL, A LA GENTITA DE
ICA ITALO Y CARLOS, Y LA GENTE DE LA BANDA: ALEJANDRO (VOCALISTA),
BRAYER (BAJISTA), RICKY (BATERISTA),LUIS (SEGUNDA GUITARRA), MIGUEL (?)
Y SU SERVIDOR CESAR (PRIMERA GUITARRA) ;).... TODOS PASTRULAZOS JAJAJA
MENTITA.





Calificar esta versión:
Aviso: Este fichero es trabajo propio de su transcriptor y representa su interpretación personal de la canción. El material contenido en esta página es para exclusivo uso privado, por lo que se prohibe su reproducción o retransmisión, así como su uso para fines comerciales.
Más versiones de Culpable, Líbido
Culpable
acordes
Culpable (ver 2)
acordes
Culpable
tablatura
Culpable (ver 2)
tablatura
Culpable (ver 3)
tablatura
Culpable
bajo
Descubre más canciones de Líbido