Perdónala, Les Luthiers (tablatura)

Autor: Anónimo | 42577 visualizaciones



   Dm             E7    Am         Am/G
|--12-12-10-10----------10--8-8---------|
|--------------13-12------------12-10---|
|---------------------9-----------------|
|---------------------------------------|
|---------------------------------------|
|---------------------------------------|

  F            E7         Am
|---8-------------8-10-12-13-12---------|
|-----12-12-10-12-----------------------|
|-9-------------------------------------|
|---------------------------------------|
|---------------------------------------|
|---------------------------------------|

  A7           Dm                E7
|------------9-12-10-13-12-10-----------|
|-10-9-10-12------------------13-12-----|
|---------------------------------------|
|---------------------------------------|
|---------------------------------------|
|---------------------------------------|

  Am           Am/G
|--------------10----------10-----------|
|------9-10-12----13--13-12---13--------|
|-9-11----------------------------------|
|---------------------------------------|
|---------------------------------------|
|---------------------------------------|

  F                     E7          Am
|-------------------------------------------|
|-13-12-10-9-10-13-12---12-10-9-10-12-13-10-|
|-------------------------------------------|
|-------------------------------------------|
|-------------------------------------------|
|-------------------------------------------|



       Am          (Am/E)        Am      (Am/E)
No querría con Esther seguir viviendo
       A7        (A7/E) A7   Dm
lo que hizo ya no puede perdonarse;
        E7                          Am      Am/G
Que se vaya, no me agrada estar sufriendo
         F       E7        Am        (Am/E)
ciertas cosas no deben olvidarse.


   Dm   E7    Am       Am/G
Perdónala, perdónala.
     F            E7           Am
Es, dulce te fue fiel, es una dama. (Am/E) Am
   Dm  E7     Am        Am/G
Perdónala, perdónala
   F        E7         Am
Seguro que aún ella te ama.



       Am        (Am/E)         Am     (Am/E)
No querría con Esther seguir viviendo
       A7                       Dm
lo que pude perdonar lo he perdonado,
     E7                        Am     Am/G
esa tarde cuando ya se estaba yendo
      F           E7             Am
confesó que ella nunca me había amado.


   Dm  E7         Am      Am/G
Perdónala, no obstante,
   F               E7          Am    (Am/E)
regresa a aquellos besos como miel.
    Dm       E7               Am      Am/G
Esther te fue leal te fue constante,
   F      E7           Am
y toda la vida te fue fiel.


       C         (C/G)            C     (C/G)
No querría con Esther seguir viviendo
         A7      (A7/E)       Dm
nuestra vida fue amarga como hiel,
     G                         C
esa tarde cuando ya se estaba yendo
     Dm           G             C
confesó que ella nunca me fue fiel.



    Dm   E7       Am      Am/G
Compréndela, ten calma,
        F           E7            Am    (Am/E)
fueron sólo veinte hombres hasta ayer.
    Dm             E7          Am     Am/G
Y piensa que en el fondo de su alma,
       F             E7     Am
esa muchacha es una dulce mujer.


       C        (C/G)            C      (C/G)
No querría con Esther seguir viviendo,
       A7                     Dm
ya no puedo perdonar a esa muchacha
     G                         C
Esa tarde cuando ya se estaba yendo
         Dm          G           C
me persiguió por la casa con un hacha.


   Dm  E7               Am       Am/G
Tolérala es sólo una muchacha,
    F              E7         Am     (Am/E)
conviene que unos días no se vean.
      Dm      E7         Am      Am/G
Las mejores parejas se pelean
        F          E7            Am      (Am/E)
y casi todas se persiguen con un hacha.



       Am      (Am/E)            Am    (Am/E)
No querría con Esther seguir viviendo,
     A7                         Dm
mis amigos nunca fueron de su agrado.
      E7                       Am      Am/G
Esa tarde cuando ya se estaba yendo
   F           E7         Am
opinó que eran todos unos vagos.


  Dm      E7        Am        Am/G
Olvídala, debes olvidarla,
        F         E7        Am        (Am/E)
de esa bruja por fin te liberaste.
      Dm        E7          Am        Am/G
Pero cuéntanos antes de olvidarla
            F           E7         Am
que fue lo peor, lo que no le perdonaste.



   Am          (Am/E)     Am         (Am/E)
Lo último que hizo fue tremendo
    A7                   Dm
eso si que no puede perdonarse.
    E7                         Am
Esa tarde cuando ya se estaba yendo...
F   E7                    Am/maj6
        decidió quedarse.





Calificar esta versión:
Aviso: Este fichero es trabajo propio de su transcriptor y representa su interpretación personal de la canción. El material contenido en esta página es para exclusivo uso privado, por lo que se prohibe su reproducción o retransmisión, así como su uso para fines comerciales.
Más versiones de Perdónala, Les Luthiers
Perdonala
acordes
Perdónala
tablatura
Descubre más canciones de Les Luthiers