Fuiste Mia Un Verano, Leonardo Favio (tablatura)

Autor: Anónimo | 43763 visualizaciones

Intro:  (RIFF intro)

    Dm              Am              E7              Am
E|--|-----5-|---5---|-----5-|---5---|-------|-------|-----5-|---5---|-
B|--|-6-----6-----6-|-5-----5-----5-|-----9-|---9---|-5-----5-----5-|-
G|--|---7---|-7-----|---5---|-5-----|-7-----7-----7-|---5---|-5-----|-
D|--7-------|-------|-------|-------|---9---|-9-----|-------|-------|-
A|--|-------|-------7-------|-------7-------|-------7-------|-------|-
E|--|-------|-------|-------|-------|-------|-------|-------|-------|-

*** Toda la canción está arpegeada con los siguientes acordes ***
    Dm              
E|--|-----5-|---5---|-----5-|---5---|-
B|--|-6-----6-----6-|-6-----6-----6-|-
G|--|---7---|-7-----|---7---|-7-----|-
D|--7-------|-------7-------|-------|-
A|--|-------|-------|-------|-------|-
E|--|-------|-------|-------|-------|-

    Am              
E|--|-----5-|---5---|-----5-|---5---|-
B|--|-5-----5-----5-|-5-----5-----5-|-
G|--|---5---|-5-----|---5---|-5-----|-
D|--|-------|-------|-------|-------|-
A|--7-------|-------7-------|-------|-
E|--|-------|-------|-------|-------|-

    E7              
E|--|-------|-------|-------|-------|-
B|--|-----9-|---9---|-----9-|---9---|-
G|--|-7-----7-----7-|-7-----7-----7-|-
D|--|---9---|-9-----|---9---|-9-----|-
A|--7-------|-------7-------|-------|-
E|--|-------|-------|-------|-------|-

*** Despues cada acorde se arpegea dos veces a diferencia del intro ***

   Am            Am         
 [ Hoy la vi, por casualidad... ]

                E7               Am
Yo estaba en el bar, me miro al pasar
          Dm              Am
Yo le sonrei y le quise hablar 
             E7                 Am
Me pidió que no , que otra vez será,
               Dm                 Am
que otra vez será, que otra vez será,
             E7               Am
tierno amanecer, sé que nunca más.

                 Dm                     Am
Como olvidar tu pelo? como olvidar tu aroma?
                       E7                      Am
Si aun navega en mis labios, el sabor de tu boca.
                Dm                      Am
Cada piba que pase con un libro en la mano
                 E7                    Am
me traerá tu nombre como en aquel verano.


     Dm      Am       E7       Am
 eeeeh, eeh eeh, eeh eeh, eeh eeh...


                 Dm                  Am
Fuiste mía un verano solamente un verano
                  E7                    Am
yo no olvido la playa ni aquel viejo café
                   Dm                        Am
ni aquel pájaro herido que entibiaste en tus manos
                   E7                  Am
ni tu voz ni tus pasos se alejaran de mí.
               Dm                 Am
Que otra vez será, que otra vez será,
             E7               Am
tierno amanecer, sé que nunca más.


----------
Transcrito por Victor Araujo, 2002, Mexico
victoraraujo@yahoo.com
Calificar esta versión:
Aviso: Este fichero es trabajo propio de su transcriptor y representa su interpretación personal de la canción. El material contenido en esta página es para exclusivo uso privado, por lo que se prohibe su reproducción o retransmisión, así como su uso para fines comerciales.
Más versiones de Fuiste Mia Un Verano, Leonardo Favio
Fuiste Mia Un Verano
acordes
Fuiste Mia Un Verano (ver 2)
acordes
Fuiste Mia Un Verano
tablatura
Fuiste Mia Un Verano (ver 2)
tablatura
Descubre más canciones de Leonardo Favio