Souvenir, León Larregui (tablatura)

Autor: Anónimo | 24089 visualizaciones



Aquí les dejo esta rola del buen león larregui

Nota: esta rola es muy fácil hacerla Poniendo
Capo al 5 y estos serian los acordes
D, F#m, Em, D
Acordes Sin Capo serian G, Bm, Am, G
Estos sonarían mas graves pero si no tienen capo
Seria otra alternativa

Intro: 5= Capo
   D                          F#m
1/-------7------8-----7-------------7-----8-----7-------/
2/-----8---8------8-----8---8-----7---7-----7-----7---7-/
3/---7-------7------7-----7-----7-------7-----7-----7---/
4/-5--------------------------9-------------------------/
5/------------------------------------------------------/
6/------------------------------------------------------/
   Em                         D
1/-------5------7-----5-------------7-----5-----7-------/
2/-----5---5------5-----5---5-----8---8-----8-----8---8-/
3/---5-------5------5-----5-----7-------7-----7-----7---/ x2
4/-7--------------------------5-------------------------/
5/------------------------------------------------------/
6/------------------------------------------------------/

El arpegio se toca en casi toda la canción excepto en el pre coro y coro

   D
Y así fue que me olvidé de mi
   F#m
Tratando de hacerte feliz
     Em              D
y en el intento me perdí.

           D
Y me dio miedo la distancia
             F#m
Y el no ser bueno para ti
Em                    D
y a un precipicio me tiré.


UDS SAQUEN LO QUE SIGUE ALCH YA ME DIO UN CHINGY DE HUEVA
YA NO BATALLEN SOLO COPIEN Y SUBALA PERO SUBANLA BIEN
PORQUE YA NO TENGO TIEMPO POR LA ESCUELA SALUDOS DESDE SALTILLO

Pre coro:

Oh, no existe el amor,

No existe el amor ohh...

oh cuando le buscas siempre fuera de ti.


Coro:

Un vil Souvenir, tu tesoro,

Un pedazo de ayer.

Mejor así,

Sin engaños ni mentiras.



Y dices que no estabas lista,

Que no debiste continuar,

pero ya es tarde pa volver.


Y fueron tantas las palabras,

“Mil” o “y” promesas a la vez,

habrá ilusiones huérfanas.


Coro:

Oh, no existe el amor,

No existe el amor ohh...

oh cuando depende

de algo fuera de ti.


Oh, me dices que soy

Un ser especial ohh

pero me haces sentir

Como un vil Souvenir.


Coro:

Un vil Souvenir, tu tesoro,

Un pedazo de ayer.

Mejor así,

Sin engaños ni mentiras.


Oh no existe el amor,

no existe el amor ohh

oh cuando le busco

siempre fuera de ti.


Oh me dices que soy

un ser especial ohh

pero me haces sentir

como un vil Souvenir.


Un vil Souvenir, tu tesoro,

un pedazo de ayer.

Mejor así, sin engaños ni mentiras.

Nana rara rarari rara...





Calificar esta versión:
Aviso: Este fichero es trabajo propio de su transcriptor y representa su interpretación personal de la canción. El material contenido en esta página es para exclusivo uso privado, por lo que se prohibe su reproducción o retransmisión, así como su uso para fines comerciales.
Más versiones de Souvenir, León Larregui
Souvenir
acordes
Souvenir (ver 2)
acordes
Souvenir
tablatura
Descubre más canciones de León Larregui