Resguardum Ether, León Larregui (tablatura)

Autor: Anónimo | 30746 visualizaciones



Hola a toda la banda rocker…
no es tal cual la ha de tocar León, pero, se escucha muy bien,
espero que les lata,
se la dedico a mi mejor amiga Lesly.

Nota: También pueden tocar el fa sin la cejilla.

(Intro)El intro se repite También en ciertas partes del verso.

e--------------------------------------------
B---0H1-1------0H1-1------OH1-1-----3-1-0----
G---------2-----------2---------2------------
D-----------3------------3--------3----------
A--------------------------------------------
E--------------------------------------------

e---------------------------------------------------
B--OH1-1-------0H1-1------OH1-1------0H1-1----------
G--------0-----------0----------0----------0--------  x2
D----------2-----------2----------2----------2------
A---------------------------------------------------
E---------------------------------------------------



F                      C
Devoción como glándula de mi fe
 F                      C
Voluntad musculo de mi libertad
 F            C
Queriéndome, curándome,
 F              C
Soñándome otra vez

(Repetir Intro)

 F                      C
Compasión válvula de mi oración
 F                       C
Humildad, llave de mi serenidad
 F             C
Mostrándome, soltándome,
 F               C
Abriéndome otra vez


Coro:
        F                    C                    Am
No hay nada en el mundo más bello que ese primer beso
    F                                            C
Más terso, más puro más tierno que el brillo del momento
   F                   C                   Am
Rayamos las nubes con lenguas rellenas de anhelos
  F                                   C
Comimos relámpagos diáfanos bebimos truenos

e-----------------------------------------------
B---0H1-1------0H1-1------OH1-1-1----0H1-1------
G---------2-----------2-----------2--------2----
D-----------3-----------3-----------3--------3--
A-----------------------------------------------
E-----------------------------------------------

e------------------------------------------------
B--OH1-1-------0H1-1------OH1-1------0H1-1-------
G--------0-----------0----------0----------0-----
D----------2-----------2-----------2----------2--
A------------------------------------------------
E------------------------------------------------

e--------------------------------------------
B---0H1-1------0H1-1------OH1-1-----3-1-0----
G---------2-----------2---------2------------
D-----------3------------3--------3----------
A--------------------------------------------
E--------------------------------------------

e---------------------------
B--OH1-1-------0H1-1-----0--
G--------0-----------0------
D----------2-----------2----
A---------------------------
E---------------------------


Después se repite el intro
e--------------------------------------------
B---0H1-1------0H1-1------OH1-1-----3-1-0----
G---------2-----------2---------2------------
D-----------3------------3--------3----------
A--------------------------------------------
E--------------------------------------------

e---------------------------------------------------
B--OH1-1-------0H1-1------OH1-1------0H1-1----------
G--------0-----------0----------0----------0--------  x2
D----------2-----------2----------2----------2------
A---------------------------------------------------
E---------------------------------------------------

 F               C        F              C
Queriéndome, cuidándome, soñándome otra vez

Coro:
       F                    C                    Am
No hay nada en el mundo más bello que ese primer beso
 F                                                 C
Más terso, más puro más tierno que el brillo del momento
  F                    C                     Am
Rayamos las nubes con lenguas rellenas de anhelos
   F                                   C
Comimos relámpagos diáfanos bebimos truenos

Solo:

Traten de acentuar cada cambio de acorde, el solo va acompañado de Em Y F x2
(igualmente fa lo pueden hacer sin la cejilla).

e------------------------------------------------------
B-------5-8--5------------5----------------5-8-5/10~---
G---5-7-------7-5~----5-7----7-5-4~----5-7-------------
D------------------------------------------------------
A------------------------------------------------------
E------------------------------------------------------

e--------------------
B-------5------------
G---5-7----7-5-4~----
D--------------------
A--------------------
E--------------------

Coro:

    C                                    Am
Navegamos los mares del alma en busca de aliento
         F                                         C
No hay nada más terso, más puro que el brillo del momento
 F                    C                    Am
Rayamos las nubes con lenguas rellenas de anhelos
   F                                   C
Comimos relámpagos diáfanos bebimos truenos




e--------------------------------------------
B---0H1-1------0H1-1------OH1-1-----3-1-0----
G---------2-----------2---------2------------
D-----------3------------3--------3----------
A--------------------------------------------
E--------------------------------------------

e------------------------------------------------
B--OH1-1-------0H1-1------OH1-1------0H1-1-------
G--------0-----------0----------0----------0-----
D----------2-----------2-----------2----------2--
A------------------------------------------------
E------------------------------------------------
e--------------------------------------------
B---0H1-1------0H1-1------OH1-1-----3-1-0----
G---------2-----------2---------2------------
D-----------3------------3--------3----------
A--------------------------------------------
E--------------------------------------------
e----------------------2----
B--OH1-1-----0--------4-----
G--------0-----------4------
D----------2--------4-------
A------------------2--------
E---------------------------





Calificar esta versión:
Aviso: Este fichero es trabajo propio de su transcriptor y representa su interpretación personal de la canción. El material contenido en esta página es para exclusivo uso privado, por lo que se prohibe su reproducción o retransmisión, así como su uso para fines comerciales.
Más versiones de Resguardum Ether, León Larregui
Resguardum Ether
tablatura
Resguardum Ether (ver 2)
tablatura
Descubre más canciones de León Larregui