Como Tú, León Larregui (tablatura)

Autor: Anónimo | 45211 visualizaciones



Hola que tal amigos Pues aquí esta otra transcripción mía
Una muy buena rola..... Este todos los acordes se usan con Ceguilla
Para que suene Mas parecida a la versión original El solo no esta tan exacto
al original pero suena parecido.En la 2 estrofa lleva arreglos háganlos rápido
¡Y si hacen los arreglos de la 2 estrofa háganlos con eléctrica suena mejor!
En los acordes Dm y F se hace un juego con una cuerda
Aqui les dejo como lo harán: Saludos !!!! :D

Dm                     F
e|--5------|           e|---1------|
B|--6------|           B|---1------|
G|--5h7----|           G|---2h3----|
D|--7------|           D|---3------|
A|--5------|           A|---3------|
E|--X------|           E|---1------|

En el intro
Antes de pasar a A# Hacer este arreglo  2|---8b10r8---|

Intro: Dm F C A# Dm

                    Dm
A mi me gustan como tu
                   F
Rebeldes y obstinadas
                    C
Con ese glamour celestial
                A#
De nubes en los pies
                   Dm
Misteriosas como el mar

                          Dm
Me gusta el tiempo de tu swing
                F
Me gusta como bailas
               C
Elegante ultra-sensual
          A#
Vampira natural
                       Dm     G
Te vuelves una con la noche.

Coro:
                A#
Me robaste el corazón
                   F
Me secuestraste la razón
              A#
En ese Magic Music Box
            Dm      A
Y me haces rodar y rodar


Durante el solo: Dm F C A# Dm
Solo:
1|-------------------------------------------------------------|
2|--14--------------12----13----------12----------10-----------|
3|----16b18-14b16------------15b17-------14b16------12b14------|
4|-------------------------------------------------------------|
5|-------------------------------------------------------------|
6|-------------------------------------------------------------|

Arreglos de la estrofa
Hacerlos con Guitarra electrica!!! Y son demasiado rapidos!!!
1|-------------------------------------------------------------|
2|-------------------------------------------------------------|
3|-5h7b8r7p5----5h7-5------2h3p2----2h3--2--8b10--8-6----6-----|
4|------------7-----------------3----------------------7-------|
5|-------------------------------------------------------------|
6|-------------------------------------------------------------|
                   Dm
A mi me gustan como tu
                   F
Valientes y obstinadas
                    C
Con ese glamour celestial
                A#
De nubes en los pies
                   Dm
Misteriosas como el mar

                  Dm
Y el sonido de tu voz
                F
La luz de tu mirada
                C
Elegante ultra-sensual
         A#
Vampira natural
                       Dm    G
Te vuelves una con la noche


Coro:
                A#
Me robaste el corazón
                   F
Me secuestraste la razón
              A#
En ese Magic Music Box
            Dm      A
Y me haces rodar y rodar


Punte: Dm Am C G
       Dm Am C G Am A

Coro:
                A#
Me robaste el corazón
                   F
Me secuestraste la razón
              A#
En ese Magic Music Box
            Dm      A
Y me haces rodar y rodar

            A#
Me robaste el corazón
                   F
Me secuestraste mi razón
              A#
En ese Magic Music Box
            Dm      A
Y me haces rodar y rodar





Calificar esta versión:
Aviso: Este fichero es trabajo propio de su transcriptor y representa su interpretación personal de la canción. El material contenido en esta página es para exclusivo uso privado, por lo que se prohibe su reproducción o retransmisión, así como su uso para fines comerciales.
Más versiones de Como Tú, León Larregui
Como Tu
acordes
Como Tú
tablatura
Descubre más canciones de León Larregui