Ojos Azules, Leo Dan (tablatura)

Autor: Anónimo | 20409 visualizaciones

Intro:

        C          Am          F           G
E |--3-----3----------0-----3--1--1--0--1--3--
A |-----3----3--2--0-----0--------------------
D |-------------------------------------------
g |-------------------------------------------
b |-------------------------------------------
e |-------------------------------------------


C                                     G
Para que quiero el mundo si pierdo el alma,
  F                             C
para que quiero el alma si tu no me amas,
  Am                            Em
para que quiero todo lo que yo tengo,
F             G           C
si no tengo tu amor mejor me muero.

                             G
Cuando te vi sabía que te quería,
 F                 G            C
desde hacía mucho tiempo sin conocerte,
Am                               Em
yo se que si llegaste fue por mi mente,
F                G                C
te conocí en mis sueños antes de verte.

                         G
Como te quiero, como te extraño
        F             G                C
como quisiera decirte siempre cuanto te amo
                       G
Ojos azules como es el cielo
         F                G                C
de mi Santiago que tanto quiero, que tanto quiero.


           Am           Dm          G           C
E |---------------------------------------------------
A |---------------------------------------------------
D |-----------7------------------------5--------------
g |--9--7--5-----5------------------------4-----------
b |-----------------10--8--6--5--6--8--------8--6--5--
e |---------------------------------------------------


C                                     G
Para que quiero el mundo si pierdo el alma,
  F                             C
para que quiero el alma si tu no me amas,
  Am                            Em
para que quiero todo lo que yo tengo,
F             G           C
si no tengo tu amor mejor me muero.


                                          G
E |-------------------------------------------------
A |-------------------------------------------------
D |-------------------------------------------------
g |-------------------------------------------------
b |--13--13--12--13--12--13--13--12--13--10--12--8--
e |--12--12--10--12--10--12--12--10--12---8--10--7--

    F                G               C
E |--------------------------------------------
A |--------------------------------------------
D |--------------------------------------------
g |--------------------------------------------
b |--10--10--8--10--8--10--10--8--12--8--6--5--
e |---8---8--7---8--7---8---8--7--10--7--8--3--


    Am                        Em    F              G              C
E |--------------------------------------------------------------------
A |--------------------------------------------------------------------
D |--------------------------------------------------------------------
g |--------------------------------------------------------------------
b |----------------10-----10-----8--------------------------------6--5-
e |-8-8-7-8-7-8-8------8------7-----5--5--3--5--3--5--5--3--5--3-------


                         G
Como te quiero, como te extraño
        F             G                C
como quisiera decirte siempre cuanto te amo
                       G
Ojos azules como es el cielo
         F                G                C         G#
de mi Santiago que tanto quiero, que tanto quiero.


         C#              G#
Como te quiero, como te extraño
       F#              G#              C#
como quisiera decirte siempre cuanto te amo
                        G#
Ojos azules como es el cielo
         F#              G#                C#
de mi Santiago que tanto quiero, que tanto quiero


         C#              G#
Como te quiero, como te extraño
       F#              G#              C#
como quisiera decirte siempre cuanto te amo
                        G#
Ojos azules como es el cielo
         F#              G#                C#
de mi Santiago que tanto quiero, que tanto quiero


Pues esto es todo, espero les sirva y hasta la próxima.
Calificar esta versión:
Aviso: Este fichero es trabajo propio de su transcriptor y representa su interpretación personal de la canción. El material contenido en esta página es para exclusivo uso privado, por lo que se prohibe su reproducción o retransmisión, así como su uso para fines comerciales.
Más versiones de Ojos Azules, Leo Dan
Ojos Azules
acordes
Ojos Azules
tablatura
Descubre más canciones de Leo Dan