Mary Es Mi Amor, Leo Dan (bajo)

Autor: Anónimo | 23798 visualizaciones

INTRO

  t=104
G|---------------------------------|---------------------------------|
D|-2-----------2-------2-----------|-2---------------2----2----------|
A|-----------------------------2---|---------------------------4-----|
E|---------------------------------|---------------------------------|


G|---------------------------------|---------------------------------|
D|-4-----------4-------4-----------|-4---------------6----4----6-----|
A|-----------------------------4---|---------------------------------|
E|---------------------------------|---------------------------------|


G|---------------------------------|---------------------------------|
D|-4-----------4-------4----------|-4---------------4----6----4-----|
A|-----------------------------4---|---------------------------------|
E|---------------------------------|---------------------------------|


G|---------------------------------|---------------------------------|
D|-2-----------2-------2-----------|-2---------------2----2----------|
A|-----------------------------2---|----------------------------4----|
E|---------------------------------|---------------------------------|


VERSE


G|---------------------------------|---------------------------------|
D|-4-----------6-------4-----------|-4-----------6-------4-----------|
A|-----------------------------4---|-----------------------------2---|
E|---------------------------------|---------------------------------|


G|---------------------------------|---------------------------------|
D|-2-----------4-------2-----------|-2-----------4-------2-----------|
A|-----------------------------2---|-----------------------------4---|
E|---------------------------------|---------------------------------|


G|---------------------------------|---------------------------------|
D|-4-----------6-------4-----------|-4-------------------------------|
A|-----------------------------4---|-------------2---2---2---4---2---|
E|---------------------------------|---------------------------------|


G|---------------------------------|
D|-2-------------------1-----------|
A|-------------2---2-------4-------|
E|---------------------------------|


VERSE


G|---------------------------------|---------------------------------|
D|-4-----------6-------4-----------|-4-----------6-------4-----------|
A|-----------------------------4---|-----------------------------2---|
E|---------------------------------|---------------------------------|


G|---------------------------------|---------------------------------|
D|-2-----------4-------2-----------|-2-----------4-------2-----------|
A|-----------------------------2---|-----------------------------4---|
E|---------------------------------|---------------------------------|


G|---------------------------------|---------------------------------|
D|-4-----------6-------4-----------|-4-------------------------------|
A|-----------------------------4---|-------------2---2---2---4---2---|
E|---------------------------------|---------------------------------|


G|---------------------------------|---------------------------------|
D|-2---------------2---2-----------|-2---------------2---2-----------|
A|-------------2---------------2---|-------------2---------------2---|
E|---------------------------------|---------------------------------|


BRIDGE


G|---------------------------------|---------------------------------|
D|-------------6-------4-------2---|-------------6---4---2-----------|
A|-4-------------------------------|-4-----------------------4---2---|
E|---------------------------------|---------------------------------|


G|---------------------------------|---------------------------------|
D|-------------7-------7-----------|-7-----------4-------2-----------|
A|-0---------------------------7---|-----------------------------4---|
E|---------------------------------|---------------------------------|


G|-------------4-------4-----------|-4-----------4-------4-----------|
D|-----------------------------4---|---------------------------------|
A|-2-------------------------------|---------------------------------|
E|---------------------------------|-----------------------------7---|


G|---------------------------------|---------------------------------|
D|---------------------------------|---------------------------------|
A|-7-----------7-------7-----------|-7-----------7-------7-----------|
E|-----------------------------7---|-----------------------------5---|


G|---------------------------------|---------------------------------|
D|---------------------------------|---------------------------------|
A|-5-----------5-------5-----------|-5-----------5-------5-----------|
E|-----------------------------5---|-----------------------------3---|


G|---------------------------------|---------------------------------|
D|---------------------------------|---------------------------------|
A|-3-----------3-------3-----------|-2-----------2---2---2---4---2---|
E|-----------------------------2---|---------------------------------|


G|---------------------------------|---------------------------------|
D|-2---------------2---2-----------|-2---------------2-------2-------|
A|-------------2---------------2---|-------------2-------2-------2---|
E|---------------------------------|---------------------------------|


PIANO SOLO


G|---------------------------------|---------------------------------|
D|-2---------------2---2-----------|-2---------------2---2-----------|
A|-------------2---------------2---|-------------2-------------------|
E|---------------------------------|-----------------------------5---|


G|---------------------------------|---------------------------------|
D|---------------------------------|---------------------------------|
A|-5---------------5---5-----------|-5---------------5---5-----------|
E|-------------5---------------5---|-------------5---------------3---|


G|---------------------------------|---------------------------------|
D|---------------------------------|---------------------------------|
A|-3---------------3---3-----------|-3---------------3---3-----------|
E|-------------3---------------3---|-------------3---------------2---|


G|-----------------4---4-----------|-4---------------4-2-------------|
D|-------------4---------------4---|-------------4---------4-2-------|
A|-2-------------------------------|-----------------------------2---|
E|---------------------------------|---------------------------------|


G|---------------------------------|---------------------------------|
D|-2---------------2---2-----------|-2---------------2---2-----------|
A|-------------2---------------2---|-------------2---------------2---|
E|---------------------------------|---------------------------------|


G|---------------------------------|---------------------------------|
D|-2---------------2---2-----------|---------------------------------|
A|-------------2-------------------|-5---------------5---5-----------|
E|-----------------------------5---|-------------5---------------5---|


G|---------------------------------|---------------------------------|
D|---------------------------------|---------------------------------|
A|-5---------------5---5-----------|-3---------------3---3-----------|
E|-------------5---------------3---|-------------3---------------3---|


G|---------------------------------|-----------------4---4-----------|
D|---------------------------------|-------------4---------------4---|
A|-3---------------3---3-----------|-2-------------------------------|
E|-------------3---------------2---|---------------------------------|


G|-4---------------4-2-------------|---------------------------------|
D|-------------4---------4-2-------|-2---------------2---2-----------|
A|-----------------------------2---|-------------2---------------2---|
E|---------------------------------|---------------------------------|


G|---------------------------------|
D|-2---------------2----2----------|
A|-------------2-------------4-----|
E|---------------------------------|


VERSE


G|---------------------------------|---------------------------------|
D|-4-----------6-------4-----------|-4-----------6-------4-----------|
A|-----------------------------4---|-----------------------------2---|
E|---------------------------------|---------------------------------|


G|---------------------------------|---------------------------------|
D|-2-----------4-------2-----------|-2-----------4-------2-----------|
A|-----------------------------2---|-----------------------------4---|
E|---------------------------------|---------------------------------|


G|---------------------------------|---------------------------------|
D|-4-----------6-------4-----------|-4-------------------------------|
A|-----------------------------4---|-------------2---2---4-------2---|
E|---------------------------------|---------------------------------|


G|---------------------------------|---------------------------------|
D|-2---------------2---2-----------|-2-----------4---2-------2-------|
A|-------------2---------------2---|-----------------------------2---|
E|---------------------------------|---------------------------------|


BRIDGE


G|---------------------------------|---------------------------------|
D|------------/6-------4-------2---|------------/6---4---2-----------|
A|-4-------------------------------|-4-----------------------4---2---|
E|---------------------------------|---------------------------------|


G|---------------------------------|---------------------------------|
D|-------------7-------7-----------|-7-----------4-------2-----------|
A|-0---------------------------7---|-----------------------------4---|
E|---------------------------------|---------------------------------|


G|-------------4-------4-----------|-4-----------4-------4-----------|
D|-----------------------------4---|---------------------------------|
A|-2-------------------------------|---------------------------------|
E|---------------------------------|-----------------------------7---|


G|---------------------------------|---------------------------------|
D|---------------------------------|---------------------------------|
A|-7-----------7-------7-----------|-7-----------7-------7-----------|
E|-----------------------------7---|-----------------------------5---|


G|---------------------------------|---------------------------------|
D|---------------------------------|---------------------------------|
A|-5-----------5-------5-----------|-5-----------5-------5-----------|
E|-----------------------------5---|-----------------------------3---|


G|---------------------------------|---------------------------------|
D|---------------------------------|---------------------------------|
A|-3-----------3-------3-----------|-2-----------2---2---2---4---2---|
E|-----------------------------2---|---------------------------------|


OUTRO


G|---------------------------------|---------------------------------|
D|-2---------------2---2-----------|-------------2-------0-----------|
A|-------------2---------------5---|-3---------------------------2---|
E|---------------------------------|---------------------------------|


G|---------------------------------|---------------------------------|
D|-2---------------2---2-----------|-2-------------------------------|
A|-------------2---------------2---|---------------------------------|
E|---------------------------------|---------------------------------|
Calificar esta versión:
Aviso: Este fichero es trabajo propio de su transcriptor y representa su interpretación personal de la canción. El material contenido en esta página es para exclusivo uso privado, por lo que se prohibe su reproducción o retransmisión, así como su uso para fines comerciales.
Más versiones de Mary Es Mi Amor, Leo Dan
Mary Es Mi Amor
acordes
Mary Es Mi Amor (ver 2)
acordes
Mary Es Mi Amor
bajo
Descubre más canciones de Leo Dan