Celia, Leo Dan (tablatura)

Autor: Anónimo | 35345 visualizaciones

Celia
Leo Dan

Intro:
e-----7---5---3----2---0---|
B----------------------0---|
G---8---5---4----2-----0---|
D----------------------2---|
A----------------------2---|
E----------------------0---|

La conocí un domingo…
e----5----7---8--|----0---2---3--|---2--1--1h2------0-|
B----------------|---------------|--------------------|
G---5---7---9----|---0---2---4---|---2--2--2------0---| 2x
D----------------|---------------|--------------------|
A----------------|---------------|--------------------|
E----------------|---------------|--------------------|


Acordes:

   Am   B7  Em
e---0----2---0---|
B---1----1---0---|
G---2----2---0---|
D---2----0---2---|
A---0----2---2---|
E---x----0---0---|


Final:

Ay Celia…
   A   Em
e--0---0--|
B--2---0--|
G--2---0--|
D--2---2--|
A--0---2--|
E--x---0--|

Marco Mtz.
Calificar esta versión:
Aviso: Este fichero es trabajo propio de su transcriptor y representa su interpretación personal de la canción. El material contenido en esta página es para exclusivo uso privado, por lo que se prohibe su reproducción o retransmisión, así como su uso para fines comerciales.
Más versiones de Celia, Leo Dan
Celia
acordes
Celia
tablatura
Descubre más canciones de Leo Dan